Agathodaimon - Banner Of Blasphemy Chords & Tabs

 

Banner Of Blasphemy Chords & Tabs

Agathodaimon Chords & Tabs

Version: 1 Type: Tab 0 ratings
1 star 2 stars 3 stars 4 stars 5 stars
comments

Banner Of Blasphemy Tab

AGATHODAIMON - Banner Of Blasphermy "Version 1.0"
>From The Album "Blacken The Angel"
Transcribed by Goatwarlock(Goatwarlock@Hotmail.com)

All corrections and comments welcome
This is my first tabbing of any Agatho's songs.This tab
is half way through,and will finish later.After this 
one,I'll do "Near Dark" and "Tristetea Vehementa".Later
for now.
p-Palm Mute          ///-Slide
...-Play Many Times

This song takes two guitars to play both tuned down ONE step
00:00-00:25 Thunder and Rain
00:26-00:36 RIFFA1  Palm mute all the way till RIFFB
|-------------|-------------|
|-------------|-------------|
|-------------|-------------|
|-------------|-------------|
|-5p-7p-6p...-|-5p-6p-7p...-|
|-3p-5p-4p...-|-3p-4p-5p...-|
|RIFFA2
|-------------|-------------------|
|-------------|-------------------|
|-------------|-------------------|
|-------------|-------------------|
|-------------|-5p-6p-7p...-4p...-|
|-------------|-3p-4p-5p...-5p...-|

Hyperion and Sathonys play RIFFB diffrently,first clean then
with palm mute than clean again.Listen to the CD to see what
I mean.
00:37-01:12 RIFFB1
|----------|----------|----------|
|----------|----------|----------|
|----------|----------|----------|
|----------|----------|----------|
|-5-7-6...-|-5-6-7...-|-5p-7p-6p-|
|-3-5-4...-|-3-4-5...-|-3p-5p-4p-|
|RIFFB2
|----------|---------------|----------|
|----------|---------------|----------|
|----------|---------------|----------|
|----------|---------------|----------|
|-5-7-6...-|-5-6-7...-4...-|-5p-7p-6p-|
|-3-5-4...-|-3-4-5...-5...-|-3p-5p-4p-|

01:13-01:29 Keyboards
|-----------------------------|---|
|-----------------------------|---|
|-----------------------------|---|
|-------7-------7---6-7-6-7-6-|-6-|
|-8-7-8---8-7-8---------------|---|
|-----------------------------|---|
[ Tab from: http://www.guitartabs.cc/tabs/a/agathodaimon/banner_of_blasphemy_tab.html ]
01:30-01:40 RIFFC1
|---------------------------------------------------------|
|---------------------------------------------------------|
|---------------------------------------------------------|
|-------6-------6-------9-------9-------6-------6-------9-|
|-7-6-7---7-6-7---7-6-7---7-6-7---7-6-7---7-6-7---7-6-7---|
|---------------------------------------------------------|
|RIFFC2
|---------------------------------------------------------|
|---------------------------------------------------------|
|---------------------------------------------------------|
|-------6---------------9---------------6---------------9-|
|-------4---------------7---------------4---------------7-|
|---------------------------------------------------------|
|RIFFC1
|---------------------------------------------------------|
|---------------------------------------------------------|
|---------------6-------6-----------------------6-------6-|
|-------9-----------------------9-------9-----------------|
|-7-6-7---7-6-7---7-6-7---7-6-7---7-6-7---7-6-7---7-6-7---|
|---------------------------------------------------------|
|RIFFC2
|---------------------------------------------------------|
|---------------------------------------------------------|
|---------------------------------------------------------|
|---------------6---------------9---------------6---------|
|---------------4-7p...---------7-7p...---------4-7p...---|
|-----------------5p...-----------5p...-----------5p...---|
|RIFFC1
|-----------------------|
|-----------------------|
|-----------------------|
|-------9-------9-------|
|-7-6-7---7-6-7---7-6-7-|
|-----------------------|
|RIFFC2
|-----------------------|
|-----------------------|
|-----------------------|
|-------9---------------|
|-------7-7///----------|
|---------5///----------|

01:41-01:50 RIFFD1
|---------------------------------------------------|
|----------------9...-8...-4...------4...-5...-4...-|
|-5...-2...-5...----------------2...----------------|
|---------------------------------------------------|
|---------------------------------------------------|
|---------------------------------------------------|
|RIFFD2
|---------------------------------------------------|
|---------------------------------------------------|
|---------------------------------------------------|
|-5...-0...-5...----------------0...----------------|
|-3...-2...-3...----------------2...----------------|
|---------------------------------------------------|

01:51-02:01 Play RIFFC

At the end of that RIFFC,guitar2 changes.I will call this extra
RIFF "RIFFC2 END" to avoid any confusion.

01:57-02:01 RIFFC2 END
|-----------------------------------------|
|-----------------------------------------|
|-----------------------------------------|
|------6...-5...-6...------4...-3...-4...-|
|-4...----------------4...----------------|
|-----------------------------------------|

02:02-02:11 Play RIFFD

02:12-03:07 Play RIFFB

03:08-03:20 RIFFE1
NOT FINISHED YET.......
Comments