Against Me - You Look Like I Need A Drink Acoustic Chords & Tabs

 

You Look Like I Need A Drink Acoustic Chords & Tabs

Against Me Chords & Tabs

Version: 1 Type: Tab 0 ratings
1 star 2 stars 3 stars 4 stars 5 stars
comments

You Look Like I Need A Drink Acoustic Tab

   
Song: You Look Like I Need a Drink (Acoustic)
Artist: Against Me!
Album: Cavalier Eternal 7" (2004)
As tabbed by William Gareau

Questions? Comments? will_86ca@yahoo.com


Chords: 

e|--2---0---2--|
B|--3---2---2--|
G|--4---2---0--|
D|--4---2---0--|
A|--2---0---2--|
E|----------3--|

    Bm  A   G


e|---------------------------------3--3333-3333-33-333---33---33---33------|
B|---------------------------------3--3333-3333-33-333---33---33---33------|
G|-------2---------------------0-0-0--0000-0000-00-000---00---00---00------|
D|----4--0--2-4-2-0-2--4-2-0--2-2--0--0000-0000-00-000---00---00---00-4-2-0|
A|-2-5-5----0----------------------2--2222-2222-22-222-2-22-2-22-2-22------|
E|---------------------------------3--3333-3333-33-333-3----3----3---------|
                                      * *  * *  *  * *    *    *    *

*Upstroke

[ Tab from: http://www.guitartabs.cc/tabs/a/against_me/you_look_like_i_need_a_drink_acoustic_tab.html ]
e|---22--22---22------|
B|---33--33---33------|
G|---44--44---44------| Bm riff
D|---44--44---44------|
A|-2--------2---------|
E|-----2--------2-5---|
      *   *    *


e|---00--00---00--00--|
B|---22--22---22--22--|
G|---22--22---22--22--| A riff
D|---22--22---22--22--|
A|-0--------0---------|
E|-----0--------0-----|
      *   *    *   *

e|---22--22---22------|
B|---22--22---22------|
G|---00--00---00------| G riff
D|---00--00---00------|
A|-2--------2---------|
E|-----3--------5-3---|
      *   *    *

Continue this thoughout the whole song. At 1:39 the muted progression goes Bm A G Bm.

End on:

e|---2--22---22--222---2--22--2---|
B|---3--33---33--333---3--33--3---|
G|---4--44---44--444---4--44--4---|
D|---4--44---44--444---4--44--4---|
A|-2-------2---------2--------2---|
E|----2--------2--------2---------|
         *    *   *        * 

Just start slow if the strumming confuses you at first, over all it's an easy song.
Comments