Against Me - Walking Is Still Honest Chords & Tabs

 

Walking Is Still Honest Chords & Tabs

Against Me Chords & Tabs

Version: 1 Type: Tab 0 ratings
1 star 2 stars 3 stars 4 stars 5 stars
comments

Walking Is Still Honest Tab

Against Me!
Walking Is Still Honest:

e|-2---2---2---2---2---2---2---2---2---2---2---2---2---2---------------------
B|-3---3---3---3---3---3---3---3---3---3---3---3---3---3---------------------
G|-2---2---2---2---2---2---2---2---2---2---2---2---2---2---------------------
D|-------------4-------2-------------------4-------2-------------------------
A|---------------------------------------------------------------------------
E|---------------------------------------------------------------------------

e|-2---0---2---0---2---2---2---2---2---2---2---2---2---2---2---2---2---2---0-
B|-3---2---3---2---3---3---3---3---3---3---3---3---3---3---3---3---3---3---2-
G|-4---2---4---2---2---2---2---2---2---2---2---2---2---2---2---2---2---4---2-
D|-----------------------------4-------2---------------4-------2-------------
A|---------------------------------------------------------------------------
E|---------------------------------------------------------------------------
[ Tab from: http://www.guitartabs.cc/tabs/a/against_me/walking_is_still_honest_tab.html ]
e|-2---0---2---3---2---2---2---2---2---2---2---2---2---2---2---2---2---------
B|-3---2---3---3---3---3---3---3---3---3---3---3---3---3---3---3---3---------
G|-4---2---4---0---4---2---2---2---2---2---2---2---2---2---2---2---2---------
D|-----------------------------4-------2---------------4-------2-------------
A|---------------------------------------------------------------------------
E|---------------------------------------------------------------------------

Chorus:
e|-3---2---0---2---0---3---2---0---2---0---3---2---0---2---0---2---2---0---2-
B|-3---3---2---3---2---3---3---2---3---2---3---3---2---3---2---3---3---2---3-
G|-0---2---2---4---2---0---2---2---4---2---0---2---2---4---2---2---4---2---2-
D|---------------------------------------------------------------------------
A|---------------------------------------------------------------------------
E|---------------------------------------------------------------------------

Tabbed by floggingmolly723
Questions or comments: buffalosuperheros@yahoo.com
Comments