Against Me - Unprotected Sex With Multiple Partners Chords & Tabs

 

Unprotected Sex With Multiple Partners Chords & Tabs

Against Me Chords & Tabs

Version: 1 Type: Tab 0 ratings
1 star 2 stars 3 stars 4 stars 5 stars
comments

Unprotected Sex With Multiple Partners Tab

Against Me! Unprotected Sex
With Multiple Partners
Searching For a Former Clarity
(power chord intro)
e-----------------------------|
B-----------------------------|
G------99-77--------44--------|
D------99-77-77--55-44--------|
A------77-55-77--55-22--------|
E------------55--33-----------|
[ Tab from: http://www.guitartabs.cc/tabs/a/against_me/unprotected_sex_with_multiple_partners_tab.html ]
e--------------------------->
B------------3h5p3----3---3->
G--------2h4-------4-------->X3
D----------------------4---->
A--------------------------->
E--------------------------->

then
e--------------------------|
B------------3h5p3----(b)5-|
G--------2h4-------4-------|
D--------------------------|
A--------------------------|
E--------------------------|
Comments