Against Me - Sink Florida Sink Chords & Tabs

 

Sink Florida Sink Chords & Tabs

Against Me Chords & Tabs

Version: 1 Type: Chords 0 ratings
1 star 2 stars 3 stars 4 stars 5 stars
comments

Sink Florida Sink Chords

   
-------------------------------------------------------------------------------
			     Sink, Florida, Sink - Against Me!
-------------------------------------------------------------------------------
Tabbed by: Stephen D'Angelo
Email: mallow40@hotmail.com

Tuning: Standard

Chords:

   C	   Am	   G	   F

e|-0-------0-------3-------1-|
B|-1-------1-------3-------1-|
G|-0-------2-------0-------2-|
D|-2-------2-------0-------3-|
A|-3-------0-------2-------3-|
E|-x-------x-------3-------x-|

*|The entire song is just these four chords played continously.
*|If you listen to the song you will be able to pick up the strumming patterns.
[ Tab from: http://www.guitartabs.cc/tabs/a/against_me/sink_florida_sink_crd.html ]
--------------------------------------------------------
	      C		
Not one more word tonight
      Am	
between here and there
	    G
We'll put a distance the size of the ocean
           F
so now his heart can be a skipping rythem
As the cadence carries me
I almost drift away
far enough to forget
but when it comes you cannot hesitate
and when found I will write
on account and seal it in an envelope
addressed to your last known residence

Whaaaaaaaaaaaaaaaoooooooooooooooo

and we sink and we drowned
and what is lost can never be found
well these arms did swim, 
until the lungs pulled in
panic was lost in a deep understanding
that you will see what is wrong with everything
what is wrong with you and me
they make all the right reasons to fuck it up
you gotta fuck it up

Whaaaaaaaaaaaaaaaoooooooooooooooo

(That sounded pretty good to me)
(I thought it was pretty good)

--------------------------------------------------------

(lyrics by Charles Allen from www.plyrics.com)

===============================================================================
Comments