Against Me - Searching For A Former Clarity Chords & Tabs

 

Searching For A Former Clarity Chords & Tabs

Against Me Chords & Tabs

Version: 2 Type: Tab 0 ratings
1 star 2 stars 3 stars 4 stars 5 stars
comments

Searching For A Former Clarity Tab

   
-------------------------------------------------------------------------------
			     SEARCHING FOR A FORMER CLARITY - Against Me!
-------------------------------------------------------------------------------
Tabbed by: Greg Y.
Email:Superpiper45@hotmail.com

Tuning: e B G D A e

The whole song is just these chords repeated. you can play them either this way...
[ Tab from: http://www.guitartabs.cc/tabs/a/against_me/searching_for_a_former_clarity_tab_ver_2.html ]
|---------------------------------------------------------------------------|
|-----------3---------------------------------------------------------------|
|--------1--2---------------------------------------------------------------|
|--7--7--2--0---------------------------------------------------------------|
|--4--4--2------------------------------------------------------------------|
|--5--5---------------------------------------------------------------------|

-or-

|---------------------------------------------------------------------------|
|-----------3---------------------------------------------------------------|
|--------1--2---------------------------------------------------------------|
|-----7--2--0---------------------------------------------------------------|
|--4--4--2------------------------------------------------------------------|
|--5------------------------------------------------------------------------|
Comments