Against Me - Searching For A Former Clarity Chords & Tabs

 

Searching For A Former Clarity Chords & Tabs

Against Me Chords & Tabs

Version: 1 Type: Tab 0 ratings
1 star 2 stars 3 stars 4 stars 5 stars
comments

Searching For A Former Clarity Tab

okay so this song is VERY basic, just four notes, which turns into four chords.
i don't see any corrections that could be made on this but if you have any, let
me know. okay so there are four notes that run through the entire song:
[ Tab from: http://www.guitartabs.cc/tabs/a/against_me/searching_for_a_former_clarity_tab.html ]
e--------------------|
B--------------------|
G--------------------|
D--------------------|
A-------4---7---5----|
E---5----------------|

after a while the second guitar comes in and plays the same notes as power chords:

e--------------------|
B--------------------|
G-------6---9---7----|
D---7---6---9---7----|
A---7---4---7---5----|
E---5----------------|

that's it.
once again, let me know if you have comments or corrections.
thanks.
Comments