Against Me - I Still Love You Julie Chords & Tabs

 

I Still Love You Julie Chords & Tabs

Against Me Chords & Tabs

Version: 1 Type: Tab 0 ratings
1 star 2 stars 3 stars 4 stars 5 stars
comments

I Still Love You Julie Tab

e------------------------------------------------
b------------------------------------------------
g----------------------------------------4-4-----
d--------4-4-------------4-4-----------5-----55--
a------5-----5-5-------5-----5-5---7-7-----------
e--7-7-------------5-5---------------------------
     (repeat)          (repeat)      (repeat)

e-------------------------------
b-------------------------------
g--------6-6------------6-6-----
d------7-----7-7------7-----7---
a--9-9------------7-7-----------
e-------------------------------
[ Tab from: http://www.guitartabs.cc/tabs/a/against_me/i_still_love_you_julie_tab.html ]
Comments