Against Me - Even At Our Worst Were Still Better Than Most The Roller Chords & Tabs

 

Even At Our Worst Were Still Better Than Most The Roller Chords & Tabs

Against Me Chords & Tabs

Version: 1 Type: Tab 0 ratings
1 star 2 stars 3 stars 4 stars 5 stars
comments

Even At Our Worst Were Still Better Than Most The Roller Tab

   
------------------------------------------------------------------------
Against Me - Even at Our Worst We\'re Still Better Than Most (The Roller)
------------------------------------------------------------------------
By: Kurt Z.   
     
     Chords Used
     F     A#    C   
e|-------------------|
B|-------------------|
G|---10--------------|
D|---10----8----10---|
A|----8----8----10---|
E|---------6-----8---|

Intro (Pluck these Bastards...)
e|------------------------------------------------------|
B|------------------------------------------------------|
G|------------------------------------------------------|
D|----7---7-------7---7-------7----7-------7---7--------|
A|--8---8---8-8-8---8---8-8-8----8---8-8-8---8---8-8-8--|
E|------------------------------------------------------|

Intro Part II
e|---------------------------------------------------------|
B|---------------------------------------------------------|
G|--------------------------------2---2-------2---2--------|
D|----7---7-------7---7---------3---3---3-3-3---3---3-3-3--|
A|--8---8---8-8-8---8---8-8-8------------------------------|
E|---------------------------------------------------------|

e|---------------------------------------------------------|
B|---------------------------------------------------------|
G|----3---3-------3---3-----------7---7-------7---7--------|
D|--3---3---3-3-3---3---3-3-3---8---8---8-8-8---8---8-8-8--|
A|---------------------------------------------------------|
E|---------------------------------------------------------|
[ Tab from: http://www.guitartabs.cc/tabs/a/against_me/even_at_our_worst_were_still_better_than_most_the_roller_tab.html ]
Rock Out Part
e|-------------------------|
B|-------------------------|
G|---10----10--------------|
D|---10----10----8----10---|
A|----8-----8----8----10---|
E|---------------6-----8---|

F
You know they\'re waiting,
(you know they\'re waiting)
C
You know they\'re waiting,
(you know they\'re waiting)
F
You know they\'re waiting,
(they\'re just waiting)
A#
To tear us apart
F
You know they\'re waiting,
(you know they\'re waiting)
C
You know they\'re waiting,
(you know they\'re waiting)
F
You know they\'re waiting,
(they\'re just waiting.)
A#
To tear us apart

End Part (Listen and you can hear how many times you play it)
e|-------------------------------------------------------------|
B|-------------------------------------------------------------|
G|--10---12---14---15---10-12-10-14--10-12-10-14--10-12-10-14--|
D|-------------------------------------------------------------|
A|-------------------------------------------------------------|
E|-------------------------------------------------------------|

e|---------------------------------------------------|
B|---------------------------------------------------|
G|--15-14-12-15-14-12-15-14-12-15-14-12-15-14-12-----|
D|-----------------------------------------------15--|
A|---------------------------------------------------|
E|---------------------------------------------------|

Order
Intro 
Intro Part II   X2
Rock Out Part   X2
Intro Part II   X2
Rock Out Part   X2
You Know They\'re Waiting
End Part

========================================================================
Comments