Against All Authority - The Excuse Chords & Tabs

 

The Excuse Chords & Tabs

Against All Authority Chords & Tabs

Version: 1 Type: Bass Tab 0 ratings
1 star 2 stars 3 stars 4 stars 5 stars
comments

The Excuse Bass Tab

-------------------------------------------------------------------------------
                    THE EXCUSE - Against All Authority
-------------------------------------------------------------------------------

By:I_Wanna_Riot@nazipunksfuckoff.com        (bob)

INTRO / CHORUS
G|---------------------------------------------------------------------------|
D|---------------------------------------------------------------------------|
A|------3-2-2-----2-1-1------------------------------------------------------|
E|--1-2-------1-2------------------------------------------------------------|
[ Tab from: http://www.guitartabs.cc/tabs/a/against_all_authority/the_excuse_btab.html ]
VERSE (play part before stars 3 times)
G|-------------------*-------------------------------------------------------|
D|-------------------*-------------------------------------------------------|
A|--------------3-3--*----------1-1-1-1--------------------------------------|
E|--1-1-1-1-2-2------*--4-4-4-4----------------------------------------------|

PRE-CHORUS (palm mute the last 2 chords the 2nd time)
e|---------------------------------------------------------------------------|
B|---------------------------------------------------------------------------|
G|---------------------------------------------------------------------------|
D|---------------------------------------------------------------------------|
A|--3-3-3-3-4-4-4-4----------------------------------------------------------|
E|------------------2-2-2-2-4-4-4-4------------------------------------------|

Comments