Against - Things Have Changed Chords & Tabs

 

Things Have Changed Chords & Tabs

Against Chords & Tabs

Version: 1 Type: Tab 0 ratings
1 star 2 stars 3 stars 4 stars 5 stars
comments

Things Have Changed Tab

THINGS HAVE CHANGED

(Written by André Kraft [Against] and Robin Schäfer [n’RoK])

This is a real song to bang your head to. I (Robin) wrote the music 
to it as against didn't have a guitarist at the time the song was
created. well here it is
(i know this text won't interest you at all!)


Intro

|---------------------------------------------|
|---------------------------------------------|
|---------------------------------7~----------|
|---------------------------------7~----7~----| play 4x
|-palm-muted-(P.M.)-P.M.-P.M.-P.M-5~----7~----|
|-0-0-0-0-3-0-0-0-3-0-0-0-3-0-0-0-------5~----|


Fill 1

|-------------------------------|
|-------------------------------|
|-------------------------5-----|
|-------------------------5--5--| play 4x
|-------------------------3--5--|
|-0-0-0-0-3-0-0-0-3-0-0-0----3--|


Verse
[ Tab from: http://www.guitartabs.cc/tabs/a/against/things_have_changed_tab.html ]
|---------------------------------|---------------------------------|
|---------------------------------|---------------------------------|
|-----------------5-------5-------|-----------------5-------5---7---|
|-2---5---7---2---5---7---5---7---|-2---5---7---2---5---7---5---7---|
|-2---5---7---2---3---7---3---7---|-2---5---7---2---3---7---3---5---|
|-0---3---5---0-------5-------5---|-0---3---5---0-------5-----------|


Refrain

|---------------------------------|
|---------------------------------|
|-----5---7---4-------5-----------|
|-2---5---7---4---2---5---7---7---| play 2x
|-2---3---5---2---2---3---7---7---|
|-0---------------0-------5---5---|

--> Fill 1

--> Verse

--> Refrain

--> Fill 1


Fill 2

|-------------------------------------------------|
|-------------------------------------------------|
|---------------------------------5-5-5-5---------|
|---------------------------------5-5-5-5-7-7-5-5-|
|---------------------------------3-3-3-3-7-7-5-5-|
|-0-0-0-0-3-0-0-0-3-0-0-0-3-0-0-0---------5-5-3-3-|


--> Refrain

--> Fill 1

--> Verse

--> Refrain

--> Refrain

--> Fill 1

--> Fill 1

Comments