Aftershock - Dark Chords & Tabs

 

Dark Chords & Tabs

Aftershock Chords & Tabs

Version: 1 Type: Bass Tab 0 ratings
1 star 2 stars 3 stars 4 stars 5 stars
comments

Dark Bass Tab

-xxxxxxxxxxxxxxxx
-xxxxxxxxxxxxxxxx
-xxxxxxxxxxxxxxxx
-xxxxxxxxxxxxxxxxx
---7-7-7-5-5-5-3-3-3-2

---5-5-5-3-3-3-1-1-1-0
    -Repeat 4 Times
Solo
--------------------------------------------------------------------------------|
------------------------------1-0-----------------------------------------------|
---2-0---------------0-2-0-------2------------------0-2-0-----------------------|
---------------0-2-3--------------------------0-2-3---------3-2-2-1-2-0-2-3-2-0-|
--------0-2-3------------------------0-2-3--------------------------------------|
Then when done play Basic E chord.

[ Tab from: http://www.guitartabs.cc/tabs/a/aftershock/dark_btab.html ]
-xxxxxxxxxxxxxxxx
-xxxxxxxxxxxxxxxx
-xxxxxxxxxxxxxxxx
-xxxxxxxxxxxxxxxxx
---7-7-7-5-5-5-3-3-3-2

---5-5-5-3-3-3-1-1-1-0
    -Repeat 4 Times
Solo
--------------------------------------------------------------------------------|
------------------------------1-0-----------------------------------------------|
---2-0---------------0-2-0-------2------------------0-2-0-----------------------|
---------------0-2-3--------------------------0-2-3---------3-2-2-1-2-0-2-3-2-0-|
--------0-2-3------------------------0-2-3--------------------------------------|
Then when done play Basic E chord.
-xxxxxxxxxxxxxxxx
-xxxxxxxxxxxxxxxx
-xxxxxxxxxxxxxxxx
-xxxxxxxxxxxxxxxxx
---7-7-7-5-5-5-3-3-3-2

---5-5-5-3-3-3-1-1-1-0
    -Repeat 4 Times
Play this with Palm Mute The Finish.
Comments