Afterhours - Voglio Una Pelle Splendida Chords & Tabs

 

Voglio Una Pelle Splendida Chords & Tabs

Afterhours Chords & Tabs

Version: 1 Type: Tab 0 ratings
1 star 2 stars 3 stars 4 stars 5 stars
comments

Voglio Una Pelle Splendida Tab

Author/Artist: Afterhours
Title: Voglio una pelle splendida
Album: Hai paura del buio?

Intro:

Guitar 1: w/ slight chorus
|-----------------------------------------------------------------|
|-------3---------------0---------------3---------------0-----0---|
|-----0-----0---0-----0-----0---0-----0-----0---0-----0---0-----0-|
|---2---------2-----0---------0-----2---------2---0h2-------2-----|
|-3-------------------------------3-------------------------------|
|-----------------3-----------------------------------------------|

Guitar 2: w/ slight chorus
|---------------------------------------------------------------------|
|---------------------------------------------0-----------0-----------|
|---0---0-----0--------0----0------0------0-------0---0-------0-----0-|
|---------------------------------------------------------------------|
|-3---3-----3---3-3/10---10-----10---10-3---3-------3---5---5-----5---|
|---------------------------------------------------------------------|

Verse 1: same intro

Chorus 1:
|-1------------0------------0------------0------------|
|-0------------0------------3------------1------------|
|-0------------0------------0------------2------------|  x2
|-0------------2------------2------------2------------|
|-2------------2------------3------------0------------|
|-3------------0--------------------------------------|
[ Tab from: http://www.guitartabs.cc/tabs/a/afterhours/voglio_una_pelle_splendida_tab.html ]
|-3------------|
|-3------------| overdrive
|-0------------|
|-0------------|
|-2------------|
|-3------------|

Post-chorus: same verse 1

Verse 2: same verse 1

Chorus 2: same chorus 1

Post-chorus 2: same verse 1

Chorus 3: same chorus 1

Post-chorus 3: same verse 1

Interlude:

Guitar 1: w/ slight chorus
|---------------------------------------------------------------------|
|-------3----------------------------------3--------------------------|
|-----0-----0---0------------------------0-----0---0------------------|
|---2---------2------------------------2---------2--------------------|
|-3---------------3/10--------------\3---------------3/5--------------|
|---------------------------------------------------------------------|

Guitar 2: w/ effect
|---------------------------------------------------------------------|
|---------------------------------------------------------------------|
|---------------------------------------------------------------------|
|-5/7br-----------5/7br--------------5/7br-----------5/7br------------|
|---------------------------------------------------------------------|
|---------------------------------------------------------------------|

Outro: same verse 1


Tablature Keys:

h - hammer on
p - pull off
b - bend
r - relese bend
~ - sustain
/ - slide up
\ - slide down
v - vibrato
* - trill
x - mute string
pm - palm mute
nh - natural harmonic
ph - pitch harmonic
x\\\ - pick scrape (direction same as slide)
Comments