Afterhours - Male Di Miele Chords & Tabs

 

Male Di Miele Chords & Tabs

Afterhours Chords & Tabs

Version: 1 Type: Tab 0 ratings
1 star 2 stars 3 stars 4 stars 5 stars
comments

Male Di Miele Tab

Author/Artist: afterhours
Title: male di miele
Album: hai paura del buio?

Intro: only guitar 1
|------------------------------------|
|------------------------------------|
|------------------------------------|
|-/9-9-9-9-9-0-0-0-0-5-5-5-5-7-7-7-7-|
|-/9-9-9-9-9-0-0-0-0-5-5-5-5-7-7-7-7-|
|-/9-9-9-9-9-0-0-0-0-5-5-5-5-7-7-7-7-|

Verse 1: same intro

Verse 2:

Guitar 1: same verse 1

Guitar 2:
|------------------------------------|
|------------------------------------|
|------------------------------------|
|-/9-9-9-9-9-x-x-x-x-5-5-x-x-7-7-x-x-|
|-/9-9-9-9-9-x-x-x-x-5-5-x-x-7-7-x-x-|
|-/9-9-9-9-9-x-x-x-x-5-5-x-x-7-7-x-x-|

Pre-chorus part 1: guitar 1 & 2
|----------------------------------------|
|----------------------------------------|
|-9---9---9---9-9---11---11---11---11-11-|
|-9---9---9---9-9---11---11---11---11-11-|
|-7---7---7---7-7---9----9----9----9--9--|
|----------------------------------------|

|------------------------------------------------|
|------------------------------------------------|
|-12---12---12---12-12---11---11---11-11---11-11-|
|-12---12---12---12-12---11---11---11-11---11-11-|
|-10---10---10---10-10---9----9----9--9----9--9--|
|------------------------------------------------|
[ Tab from: http://www.guitartabs.cc/tabs/a/afterhours/male_di_miele_tab.html ]
Pre-chorus part 2: guitar 1 & 2
|--------------------------------|
|--------------------------------|
|-9--9-9--7--7-7----------5--5-5-|
|-9--9-9--7--7-7--7--7-7--5--5-5-|
|-7--7-7--5--5-5--7--7-7--3--3-3-|
|-----------------7--7-7---------|

Chorus 1: same verse 2

Verse 3: same 2

Pre-chorus 1 & 2

Chorus 2: same 1

Interlude:

Guitar 1: x2
|-----------------------------------------|
|-----------------------------------------|
|-----------------------------------------|
|-/11-11-11-11-11-0-0-0-0-7-7-7-7-9-9-9-9-|
|-/11-11-11-11-11-0-0-0-0-7-7-7-7-9-9-9-9-|
|-/11-11-11-11-11-0-0-0-0-7-7-7-7-9-9-9-9-|

Guitar 2: x2
|-----------------------------------------|
|-----------------------------------------|
|-----------------------------------------|
|-/11-11-11-11-11-x-x-x-x-7-7-x-x-9-9-x-x-|
|-/11-11-11-11-11-x-x-x-x-7-7-x-x-9-9-x-x-|
|-/11-11-11-11-11-x-x-x-x-7-7-x-x-9-9-x-x-|

Then:

Guitar 1:
|------------------------------------|
|------------------------------------|
|------------------------------------|
|-/9-9-9-9-9-0-0-0-0-5-5-5-5-7-7-7-7-|
|-/9-9-9-9-9-0-0-0-0-5-5-5-5-7-7-7-7-|
|-/9-9-9-9-9-0-0-0-0-5-5-5-5-7-7-7-7-|

Guitar 2:
|------------------------------------|
|------------------------------------|
|------------------------------------|
|-/9-9-9-9-9-x-x-x-x-5-5-x-x-7-7-x-x-|
|-/9-9-9-9-9-x-x-x-x-5-5-x-x-7-7-x-x-|
|-/9-9-9-9-9-x-x-x-x-5-5-x-x-7-7-x-x-|

Chorus 3: same 1
Comments