Afterhours - Lasciami Leccare Ladrenalina Chords & Tabs

 

Lasciami Leccare Ladrenalina Chords & Tabs

Afterhours Chords & Tabs

Version: 1 Type: Bass Tab 0 ratings
1 star 2 stars 3 stars 4 stars 5 stars
comments

Lasciami Leccare Ladrenalina Bass Tab

AFTERHOURS - LASCIAMI LECCARE L'ADRENALINA

BASS TAB

Verso
1|---------------------|
2|---------------------|
3|-------0-0-3-3-3-3-3-|(x4)
4|-0-0-0---------------|

Chorus:
1|-------------------|
2|-------------------|
3|-------------------|(x4)
4|-3-3-3-5-5-5-1-1-1-|
 "lasciami leccare..."
[ Tab from: http://www.guitartabs.cc/tabs/a/afterhours/lasciami_leccare_ladrenalina_btab.html ]
1|-------------------------|
2|-------------------------|
3|-3-3-3-3---------3-3-3-3-|
4|---------0-0-0-0---------|
 "voglio cercare..."

1|-------------------------|
2|-------------------------|
3|-0-0-0-0-3-3-3-3---------|(x2)
4|-----------------3-3-3-3-|

quindi ripetere tutto da capo

Per commenti o correzioni la mia mail รจ fleafly_@libero.it
Comments