After The Fall - Concrete Boots Chords & Tabs

 

Concrete Boots Chords & Tabs

After The Fall Chords & Tabs

Version: 1 Type: Bass Tab 0 ratings
1 star 2 stars 3 stars 4 stars 5 stars
comments

Concrete Boots Bass Tab

After The Fall - Concrete Boots
Album - Always Forever Now
Tabbed By Elias Allanby (lpaustralia@hotmail.com or blinkme_elias2002@yahoo.com.au)
www.thenumlocks.com



INTRO
G|--0-----/------0h4/9-----------------------------|
D|-------------------------------------------------|
A|-------------------------------------------------|
E|-------------------------------------------------|
-

1ST VERSE
G|-------------------|   |--------------------|--------------------|
D|-------------------|   |--------------------|--------------------|x 4
A|-------------------|   |-3--3-0-3--0-3-0-3--|--------------------|
E|-0--0-0-0--0-0-0-0-|   |--------------------|-0--0-0-0--0-0-0-0--|


PRE CHORUS
G|-----------------------------------------|--------------------------------------|
D|-----------------------------------------|--------------------------------------|
A|-1-1-1-1--8--8--8--8---5-5-5-5--3-3-3-3--|-1-1-1-1--8--8--8--8------------------|
E|-----------------------------------------|-----------------------5-5-0-5-0-5-5--|
PM..............................................................

CHORUS
G|-----------------------------------------|    |--------------------------------------|
D|-----------------------------------------|x3  |--------------------------------------|
A|-1-1-1-1--8--8--8--8---5-5-5-5--3-3-3-3--|    |-1-1-1-1--8--8--8--8------------------|
E|-----------------------------------------|    |-----------------------5-5-0-5-0-5-5--|

G|--0-----/------0h4/9-----------------------------|
D|-------------------------------------------------|
A|-------------------------------------------------|
E|-------------------------------------------------|

[ Tab from: http://www.guitartabs.cc/tabs/a/after_the_fall/concrete_boots_btab.html ]
2ND VERSE
G|-------------------|	|--------------------|--------------------|
D|-------------------|	|--------------------|--------------------|x 4
A|-------------------|	|-3--3-0-3--0-3-0-3--|--------------------|
E|-0--0-0-0--0-0-0-0-|	|--------------------|-0--0-0-0--0-0-0-0--|


PRE CHORUS   
G|-----------------------------------------|--------------------------------------|
D|-----------------------------------------|--------------------------------------|
A|-1-1-1-1--8--8--8--8---5-5-5-5--3-3-3-3--|-1-1-1-1--8--8--8--8------------------|
E|-----------------------------------------|-----------------------5-5-0-5-0-5-5--|
PM..............................................................

CHORUS
G|-----------------------------------------|     |--------------------------------------|
D|-----------------------------------------|x3   |--------------------------------------|
A|-1-1-1-1--8--8--8--8---5-5-5-5--3-3-3-3--|     |-1-1-1-1--8--8--8--8------------------|
E|-----------------------------------------|     |-----------------------5-5-0-5-0-5-5--|


BRIDGE 
G|-----------------------------------------------------------------------|
D|-----------------------------------------------------------------------|
A|------------------------------------------------------5-5-5-5-5-5-5-5--|
E|-1-1-1-1--5-5-5-5--0-0-0-0--3-3-3-3--1-1-1-1--0-0-0-0------------------|


BREAK DURING PRE CHORUS


LAST CHORUS
G|-----------------------------------------|    |--------------------------------------|
D|-----------------------------------------|x5  |--------------------------------------|
A|-1-1-1-1--8--8--8--8---5-5-5-5--3-3-3-3--|    |-1-1-1-1--8--8--8--8------------------|
E|-----------------------------------------|    |-----------------------5-5-0-5-0-5-5--|

www.thenumlocks.com
Comments