Afroman - Crazy Rap Chords & Tabs

 

Crazy Rap Chords & Tabs

Afroman Chords & Tabs

Version: 1 Type: Tab 0 ratings
1 star 2 stars 3 stars 4 stars 5 stars
comments

Crazy Rap Tab

Author/Artist: Afroman
Title: Crazy Rap
Album: ??
Transcribed by: Richard Armstrong
Email: Hydromaniac@hotmail.com

I'm not a big fan of Afroman but this song is really funny and I love the guitar line so
here it is. NB: Rhythm isn't shown and this tab doesn't print very well

  0:15
e|--------------------------------------------------------------------------------------- 
B|--------------------------------------------------------------------------------------- 
G|-9-7-5-7-5---5--------------------------------5-5-----------5h7-9b-9b-7-5-7-5-------5--
D|-----------7---7-5----------------------5-5h7-----7-----5h7-------------------7-5-7---7
A|-------------------7-5------------5-5h7------------------------------------------------
E|-----------------------8-5------------------------------------------------------------- 

e|---------------------------------------------------------------------------------------  
B|---------------------------------------------------------------------------------------  
G|----5h7-9p7----------9p7p5-7-5-------5--------------------5-7-9b-9b-7-5-7-5------------
D|5h7----------------------------7-5-7---7--------------5h7------------------------------
A|---------------------------------------------------------------------------------------  
E|---------------------------------------------------------------------------------------  


  0:37
e|-5-xxxxxx-5--
B|-5-xxxxxx-5--
G|-5-xxxxxx-5-- keep playing the chord with 6 muted ones
D|------------- in between until the versestarts at 1:15
A|-------------
E|-------------


  1:15
e|--------------------55-5-------------------------------------------------------55-5----
B|--------------------55-5-------------------------------------------------------55-5----
G|--------------------55-5---------------------5h7-9p7-7-5-----------------------55-5----
D|5-5-5-5-5-5-5-5-5h7------5-5-5-5-5-5-5-5-5h7-------------7-5-5-5-5-5-5-5-5-5h7---------
A|---------------------------------------------------------------------------------------
E|---------------------------------------------------------------------------------------
[ Tab from: http://www.guitartabs.cc/tabs/a/afroman/crazy_rap_tab.html ]
e|----------------------5-xxxxxx-5--
B|----------------------5-xxxxxx-5-- 
G|----------------------5-xxxxxx-5-- keep playing the chord with 6 muted ones
D|5-5-5-5-5-5-5-5-5h7--------------- in between until 1:45    
A|----------------------------------
E|----------------------------------


  1:45
e|---------------------------------------------------------------------------------------                     
B|---------------------------------------------------------------------------------------
G|--------------------9p7-5-5---------------------9p7-7-5--------------------------------
D|5-5-5-5-5-5-5-5-5h7---------5-5-5-5-5-5-5-5-5h7---------7p5h7p5h7----------------------
A|---------------------------------------------------------------------------------------
E|---------------------------------------------------------------------------------------


  1:58
e|---------------------------------------------------------------------------------------
B|---------------------------------------------------------------------------------------
G|9p7p5-7-5-------5---5----------------9-7-5-7-5-5---------------------------------------
D|----------7p5h7---7------------------------------7-------------------------------------
A|---------------------------------------------------------------------------------------
E|---------------------------------------------------------------------------------------


  2:08
e|---------------------------------------------------------------------------------------
B|---------------------------------------------------------------------------------------
G|----5------------------9b-9b-7-5-7-5---------------------------------------------------
D|5-7---7--------------------------------------------------------------------------------
A|---------------------------------------------------------------------------------------
E|---------------------------------------------------------------------------------------


  2:14
e|-5-xxxxxx-5--
B|-5-xxxxxx-5--
G|-5-xxxxxx-5-- keep playing the chord with 6 muted ones in between until the end of 
D|------------- the song. There are some changes eg rests but nothing worth tabbing.
A|------------- 
E|-------------
End
Comments