Afroman - Because I Got High Chords & Tabs

 

Because I Got High Chords & Tabs

Afroman Chords & Tabs

Version: 2 Type: Tab 0 ratings
1 star 2 stars 3 stars 4 stars 5 stars
comments

Because I Got High Tab

I didn't see something cool here, so I took my time to get this tabbed for you bastards. 
It's perfect. You have to practice with it and listen to the song, but not much if your 
good or willing to practice. Practice makes perfect, so $#@%ing start. I have a little 
riff/solo thing, I don't know what to call it, but it's dope. Anyways read on...

Intro:
The beginning of the song is basic, I used power chords.
Listen to the damn song and you'll know how it goes.

G, C, and D are the power chords. You'll end up on G again.
To do the whole song it's the same chords, but I don't think it's in the same progression 
for every part. Figure that out, it's not hard, it's rap.

Now for the part in the beginning when they say, "La da da da da..." This part goes along 
with that, and it's %$#@ing perfect.

(I hate typing this tab out)
[ Tab from: http://www.guitartabs.cc/tabs/a/afroman/because_i_got_high_tab_ver_2.html ]
e---------------------------------------------------------
b---------------------------------------------------------
g----9-9-7----------------9-7s9s7---7---------------------
d----------10-9-7-------9-------------10-9-10--10-9-7-9---
a-----------------10--------------------------------------
E---------------------------------------------------------

e----------------------------------------------------------
b----------------------------------------------------------
g----------------------------------------------------------
d----7-----------------------------------------------------
a------10-9-10s12s10---------------------------------------
E----------------------------------------------------------

Then you go |C C B A G G| You'll get the timing... Just play with it.

Now I know this is correct because I am your master. I got this down. Listen to the song 
and practice it, you'll get it. I'm not going to take my time to put the timing, figure it 
out if your a real guitarist.
Comments