Afroman - Because I Got High Chords & Tabs

 

Because I Got High Chords & Tabs

Afroman Chords & Tabs

Version: 3 Type: Chords 0 ratings
1 star 2 stars 3 stars 4 stars 5 stars
comments

Because I Got High Chords

   
Afroman - Beause I Got High - Tabs


 G                
I was gonna go to class,

  G         C
then I got high.

    C        D7
I coulda cheated, and I coulda passed,

 D7         G
but I got high

 G   B7               G
I'm takin' it next semester,

 D          C
and I know why:

  C          G
'Cause I got high,

  G          D
'Cause I got high, 

  D          G
'Cause I got high.


Bridge:
                        G (resume strumming)
[ Tab from: http://www.guitartabs.cc/tabs/a/afroman/because_i_got_high_crd_ver_3.html ]
|-----------------------3---|
|-----------------------0---|
|-----------------------0---|
|-0--2--0---------------0---|
|----------3--2--0------2---|
|--------------------3--3---|


The chords and bridge are the same for every verse.

Chords:

   G        C        D7       B7         B7

|--3--|  |--0--|  |--2--|  |--7--|    |--2--|
|--0--|  |--1--|  |--1--|  |--7--|    |--0--|
|--0--|  |--0--|  |--2--|  |--8--| OR |--2--|
|--0--|  |--2--|  |--0--|  |--7--|    |--1--|
|--2--|  |--3--|  |--x--|  |--9--|    |--2--|
|--3--|  |--x--|  |--x--|  |--7--|    |--x--|




I Hope this is right

-Patrick

Comments