Afroman - Because I Got High Chords & Tabs


Because I Got High Chords & Tabs

Afroman Chords & Tabs

Version: 4 Type: Bass Tab 0 ratings
1 star 2 stars 3 stars 4 stars 5 stars

Because I Got High Bass Tab

Hi i know this song sucks but if ya punk it up a bit then it sounds pretty damn cool. 
what my band do!

Afro man 'Because i got high' [PUNKED UP]

Tabbed by Ozzyomega

Main bass line

g -----------------------------------|
d -----------------------------------|
a -----------------------------------|
E -----5~---5-5-----4~-----2~---2-2--|

g ------------------------------------|
d ------------------------------------|
a --2~---2-2--------------------------|
E -------------2~---0~--0-0-----------|
[ Tab from: ]
g ------------------------------------|
d ------------------------------------|
a --/4~---4-----7----5~---------------|
E -----------5------------------------|

    "Because i got high..."
g ------------------------------------|
d ---------------------2-4-2-0--------|
a ---4~----2~----0~-------------4--2--|
E ------------------------------------|

This tab is correct but it may not go with the actual song
[i haven't checked]

Any comments / critisisms then write them down and give 'em to some one who actually cares!