Afroman - Because I Got High Chords & Tabs

 

Because I Got High Chords & Tabs

Afroman Chords & Tabs

Version: 3 Type: Bass Tab 0 ratings
1 star 2 stars 3 stars 4 stars 5 stars
comments

Because I Got High Bass Tab

tabs: afroman
song: because i got high
tabbed by: richard shearer

this song's really cool and easy to play.
thought there is no guitar i tabbed the bass part.it's easy here it comes.
[ Tab from: http://www.guitartabs.cc/tabs/a/afroman/because_i_got_high_btab_ver_3.html ]
e |-------------------------------------------------------
B |-------------------------------------------------------
G |-------------------------------------------------------
D |-------------------------------------------------------
A |---------3-333-----5-555-------------------------------
E |--3-333---------------------3-333----------------------

here starts "la da da da da da"

e |-------------------------------------------------------
B |-------------------------------------------------------
G |-------------------------------------------------------
D |-------------------------------------------------------
A |----------3-333--------5-55--3-------------------------
E |---3-333-----------3-----------------------------------


the whole song goes like this.
if u have any comments  write to: richardshearer@katamail.com
Comments