Afi - Your Name Here Chords & Tabs

 

Your Name Here Chords & Tabs

Afi Chords & Tabs

Version: 6 Type: Bass Tab 0 ratings
1 star 2 stars 3 stars 4 stars 5 stars
comments

Your Name Here Bass Tab

   
standard tuning

INTRO/1st VERSE x4
G|-------------------------------------4554------------------------|
D|-----------3333333332-----------55555----------------------------|
A|-0000000000----------33333333333---------------------------------|
E|-----------------------------------------------------------------|

G|-----------------------------------------------------------------|
D|-----------3-2-0--3-2-3-5----------------------------------------|
A|-0000000000------3--------3333333333-555555-33-22----------------|
E|-----------------------------------------------------------------|

CHORUS x2
G|-----------------------------------------------------------------|
D|-----------333333333-55555555-66666-77-99------------------------|
A|-0000000000------------------------------------------------------|
E|-----------------------------------------------------------------|

2nd VERSE x2
G|-------------------------------------4554------------------------|
D|-----------3333333332-----------55555----------------------------|
A|-0000000000----------33333333333---------------------------------|
E|-----------------------------------------------------------------|
[ Tab from: http://www.guitartabs.cc/tabs/a/afi/your_name_here_btab_ver_6.html ]
G|-----------------------------------------------------------------|
D|-----------3-2-0--3-2-3-5----------------------------------------|
A|-0000000000------3--------3333333333-55555555-33-22--------------|
E|-----------------------------------------------------------------|

CHORUS x2
G|-----------------------------------------------------------------|
D|-----------333333333-55555555-66666-77-99------------------------|
A|-0000000000------------------------------------------------------|
E|-----------------------------------------------------------------|

INTERLUDE x1
G|-----------------------------------------------------------------|
D|------3~~-------5~~---3~-----------------------------------------|
A|-0~~-------3~~-----0~---3~-55555-33-22---------------------------|
E|-----------------------------------------------------------------|
NEXT PART x1
G|-----------------------------------------------------------------|
D|-----------3333333333----------5555555555------------------------|
A|-0000000000----------3333333333----------------------------------|
E|-----------------------------------------------------------------|
cont'd x1
G|-----------------------------------------------------------------|
D|-----------3333333333--------------------------------------------|
A|-0000000000----------3333333333-55555-33-22----------------------|
E|-----------------------------------------------------------------|
ENDING x1
G|----------------------|
D|----------------------|
A|--0----0----0~~~~~~~--|
E|----------------------|

~ = let ring
Comments