Afi - Your Name Here Chords & Tabs

 

Your Name Here Chords & Tabs

Afi Chords & Tabs

Version: 5 Type: Bass Tab 0 ratings
1 star 2 stars 3 stars 4 stars 5 stars
comments

Your Name Here Bass Tab

band: afi
song: your name here
album: answer that and stay fashionable
bass tabs
tabbed by: norefundsbass
tunning: EADG

key:
*=let ring
x10=strum note 10 times
x5=strum note 5 times


ok i noticed that no one had this song tabbed right... and since i know it so well.. i will tab it for you.

intro/verses:
G--------------------------------------------------------------]
D---------------------9-10-------------------------------------]
A------8x10------10x5------------8-7-5---8-7-5-8---------------]
E-5x10------8x10------------5x10-------8---------8x10-10x5-8x5-]

chorus:
G---------------------------------------------------]
D-----------------7x5-9-10--7x10------------7x5-9-10]
A------8x10-10x10----------------8x10-10x10---------]
E-5x10----------------------------------------------]

[repeat verse]
[repeat chorus]
[ Tab from: http://www.guitartabs.cc/tabs/a/afi/your_name_here_btab_ver_5.html ]
outro:
G----------------------------]
D----------------------------]
A----8*----10*----8----------]
E-5*----8*------5---8-10x10--]

G-------------------------------------------/-------]
D-------------------------------------------/-------]
A------8x10------10x10-------8x10-----------/-------]
E-5x10------8x10--------5x10------8x10-10x10/-5-5-5*]

a few last things too add. if you think the chorus is wrong listen to the
2nd time through it. on the 2nd set he plays the A an octave higher the the
first. also try not to play the verse on the end of the outro. it sounds
like its about to play it but.... it doesn't. this tab is 100% correct
without a doubt in my mind. im sure it can be played with different fingerings,
but these are the correct notes. any questions on this tab just email
me at norefundsbass@yahoo.com or if you need another song tabbed from this cd
just email me the song you want tabbed.
Comments