Afi - Your Name Here Chords & Tabs

 

Your Name Here Chords & Tabs

Afi Chords & Tabs

Version: 2 Type: Bass Tab 0 ratings
1 star 2 stars 3 stars 4 stars 5 stars
comments

Your Name Here Bass Tab

Your Name Here.
AFI
Answer that and Stay Fashionable
Caleb Miller




[ Tab from: http://www.guitartabs.cc/tabs/a/afi/your_name_here_btab_ver_2.html ]
G:--------------------------4-5-4-----------------------------0---------------
D:----------3--------5-------------5--------3-2-0---3-2-3-------0-------------
A:----0---------3-----------------------0-----------3-----------3------3----2-
E:----------------------------------------------------------------------------


G:-------------------------------------------------------------
D:-----------3---5-6-7-9---------------------------------------
A:-------0-----------------------------------------------------
E:-------------------------------------------------------------




Comments