Afi - Wester Chords & Tabs

 

Wester Chords & Tabs

Afi Chords & Tabs

Version: 2 Type: Tab 0 ratings
1 star 2 stars 3 stars 4 stars 5 stars
comments

Wester Tab

   
A.F.I.
~~~~~~~Wester
Tuning-Standard (ebgdaE)
  By:BoBuRt
I have to give BROOX  a lot of credit, his tabs helped me make the wester tabs better.
ALSO~~listen to song and read the tabs, it will help

i probbaly will revise this tab and add the lyrics in so u can stay with the song



//Intro

|-------------------------------------------------|              
|----------3--4---------4--3------3--4------------| repeat, then 
|----------3--3---------3--3------3--3------------|              
|--5--5------------3-3--------5-5------------88---|              d|-----------------|
|--3--3------------1-1--------3-3------666---66--8|              a|-8888--8/-5-\10--|
|--------------------------------------444-------6|              e|-6666--6/-3-\-8--|
                                                                pm   ...

//Verse
  Play when Davey sings "Below the blanket..."

|--------------------|   |--------|------------|---3-----|---------|-----|
|--------------------|   |--------|------------|---4-----|---------|-----|
|--------------------|   |----8---|------------|---3-----|---------|-----|
|--5--(hold)---------|   |-5--6---|-5-----8----|-5---8---|-5---8---|-----|
|--3-----------10/1--|   |-3----3-|-3--6--6--8-|-3---6-8-|-3-6-6-8-|-6-5-|
|--------------------|   |------1-|----4-----6-|-------6-|---4---6-|-4-3-|


//Chorus
[ Tab from: http://www.guitartabs.cc/tabs/a/afi/wester_tab_ver_2.html ]
|-----------|               |---------|
|-----------|               |---------|
|-----------| Repeat, then  |-----5---|
|-5-8-----8-|               |-5-8-3-5-|
|-3-6-8-6-6-|               |-3-6---3-|
|-----6-4---|               |---------|


//Verse
  !!!!Play intro first!!!! (Do not repeat though)
     then play this...

|------------|---3-----|---------|-----|
|------------|---4-----|---------|-----|
|------------|---3-----|---------|-----|
|-5-----8----|-5---8---|-5---8---|-----|
|-3--6--6--8-|-3---6-8-|-3-6-6-8-|-6-5-|
|----4-----6-|-------6-|---4---6-|-4-3-|


//Chorus


|-----------|               |---------|
|-----------|               |---------|
|-----------| Repeat, then  |-----5---|
|-5-8-----8-|  4 times      |-5-8-3-5-|
|-3-6-8-6-6-|               |-3-6---3-|
|-----6-4---|               |---------|




//Bridge Part 1: 
     (if u reduce bass, this is wut it sounds like)
Play this 6 times:

|---------------------|
|---------------------|
|---------------------|
|-5xx-----------8xx---|
|-3xx-6xx6xx6xx-6xx-8-|
|-----4xx4xx4xx-----6-|


//Bridge Part 2:

|---------|                        |------------------|
|---------|                        |------------------|
|---------|  repeat 4 times, then  |------------------|
|-5---8---|                        |-----(HOLD)-----8-|
|-3-6-6-8-|                        |-6-(and slide)--6-|
|---4---6-|                        |-4----------------|



//Outro

|-----------|                      |---------|
|-----------|                      |---------|
|-----------|                      |-----5---|
|-5-8-----8-| Repeat 4 times, then |-5-8-3-5-|
|-3-6-8-6-6-|                      |-3-6---3-|
|-----6-4---|                      |---------|



If there are ne mistakes, plz tell me
email~~bob_burt127@yahoo.com
Comments