Afi - Weathered Tome Chords & Tabs

 

Weathered Tome Chords & Tabs

Afi Chords & Tabs

Version: 1 Type: Tab 0 ratings
1 star 2 stars 3 stars 4 stars 5 stars
comments

Weathered Tome Tab

-----------------------------------------------------------------------------
			    AFI - Weathered Tome
-----------------------------------------------------------------------------

tabbed by Mark VandenBroek

standard tuning

Intro (Fast Palm Muted) not to sure about this, its good enough tho.  

e|-------|
B|-------|
G|---9---|
D|---9---|
A|---7---|
E|-------|

Verse (Palm mute the notes under the "|" several times)
[ Tab from: http://www.guitartabs.cc/tabs/a/afi/weathered_tome_tab.html ]
P.M.   |       |                              |       | 
e|----------------------------------------------------------------------|
B|----------------------------------------------------------------------|
G|---9-9---7/9-9---12-12-12-12-12-12-12\10/11\9---7/9-9---10/12--8/10---|
D|---9-9---7/9-9---12-12-12-12-12-12-12\10/11\9---7/9-9---10/12--8/10---|
A|---7-7---5/7-7---10-10-10-10-10-10-10\8-/9-\7---5/7-7---8-/10--6/8----|
E|----------------------------------------------------------------------|

Pre chorus

e|-------------|------------|
B|-------------|then-this---|
G|---7--9------|---once-----|
D|---7--9---X3-|---7---9----|
A|---5--7------|---7---9----|
E|-------------|---5---7----|

Chorus

e|-------------------|
B|-------------------|
G|---9---7-----------|
D|---9---7---7---10--|
A|---7---5---7---10--|
E|-----------5---8---|

Intro

Verse

Pre-chorus

Chorus

Bridge

e|----------------------------|
B|----------------------------|
G|---9---7-----------7/12\9---|
D|---9---7---7---10--7/12\9---|
A|---7---5---7---10--5/10\7---|
E|-----------5---8------------|

Intro

And there it is! Email me if u have comments/corrections, vandenbroek_mark@hotmail.com
Comments