Afi - Two Of A Kind Chords & Tabs

 

Two Of A Kind Chords & Tabs

Afi Chords & Tabs

Version: 3 Type: Tab 0 ratings
1 star 2 stars 3 stars 4 stars 5 stars
comments

Two Of A Kind Tab

Tabbed by:APerfectMistake
Email:CKYfan4life9@hotmail.com

Tuning:Standard EADGBe

Intro pt.1 
e|---------------------------------------------------------------------------|
B|---------------------------------------------------------------------------|
G|---------------------------------------------------------------------------|
D|-----8---------8---------------------11---------11-------------------------|
A|-6-6-6-6-6-6-6-6-----6---------6-9-9-9--9-9-9-9-9-9-9-----9---------11-----|
E|-----------------4-4-4-4-4-4-4-4----------------------7-7-7-7-7-9-9-9------|

Intro pt.2 
e|---------------------------------------------------------------------------|
B|---------------------------------------------------------------------------|
G|---------------------------------------------------------------------------|
D|-----8---------8---------------------11-11-11-11-11-11-9-8-----------------|
A|-6-6-6-6-6-6-6-6-----6---------6-9-9-9--9--9--9--9--9--7-6-----------------|
E|-----------------4-4-4-4-4-4-4-4-------------------------------------------|
[ Tab from: http://www.guitartabs.cc/tabs/a/afi/two_of_a_kind_tab_ver_3.html ]
Pre-Chorus
e|---------------------------------------------------------------------------|
B|---------------------------------------------------------------------------|
G|---------------------------------------------------------------------------|
D|-8-8-8-------8-8-8-------8-8-8-----------------11-11-11-11-11--------------|
A|-6-6-6-6-6-6-6-6-6-8-9-8-6-6-6-6-6-6-9-9-9-9-9-9--9--9--9--9---------------|
E|-------4-4-4-------6-7-6-------4-4-4-7-7-7-7-7-----------------------------|

Chorus
e|---------------------------------------------------------------------------|
B|---------------------------------------------------------------------------|
G|---------------------------------------------------------------------------|
D|-8-888888-8-888888-------------------11-111111111111-11-111111111111-------|
A|-6-666666-6-666666-6-666666-6-666666-9--9-9-9-9-9-9--9--9-9-9-9-9-9--------|
E|-------------------4-444444-4-444444---------------------------------------|

Chorus(Continued)
e|---------------------------------------------------------------------------|
B|---------------------------------------------------------------------------|
G|---------------------------------------------------------------------------|
D|-9-999999-8-888888---------------------------------------------------------|
A|-7-777777-6-666666---------------------------------------------------------|
E|---------------------------------------------------------------------------|


That's it...for the beginning of the song 
play Intro pt.1 once the Intro pt.2 once...
then it goes into the pre-chorus(which
is played mostly through the entire song).
Comments