Afi - Triple Zero Chords & Tabs

 

Triple Zero Chords & Tabs

Afi Chords & Tabs

Version: 1 Type: Bass Tab 0 ratings
1 star 2 stars 3 stars 4 stars 5 stars
comments

Triple Zero Bass Tab

Triple zero
AFI
Shut your mouth and open your eyes
chuckyr36@hotmail.com
I love afi they're the greatest! I would have sent the whole album 
tabbed out but I am still working on 3 songs.

Intro
G--------------
D--------------
A---------------
E--5-5-5-5--

Verse
G-------------------------------------------------------------------
D-------------------------------------------------------------------
A------------------------------------3-----------------6-6-6-6--
E--5-5-5-5-5--3--5-5-5-5--------5-5-5-5----------------
[ Tab from: http://www.guitartabs.cc/tabs/a/afi/triple_zero_btab.html ]
Chorus

G----------------------------------------------------------------------------------------------------------

D----------------------------------------------------------------------------------------------------------

A----------------8-8-8-8--3-3-3-3-3-3-3-3----------------8-8-8-8--3-3-3-3--5-5-5-5--

E--5-5-5-5------------------------------------------5-5-5-5----------------------------------------

Bridge is the same as the Verse just less picking on the 5th fret.
Any questions, comments, afi tabs just email me.



Comments