Afi - Total Immortal Chords & Tabs

 

Total Immortal Chords & Tabs

Afi Chords & Tabs

Version: 2 Type: Tab 0 ratings
1 star 2 stars 3 stars 4 stars 5 stars
comments

Total Immortal Tab

-------------------------------------------------------------------------------
			     TOTAL IMMORTAL - AFI
-------------------------------------------------------------------------------

x= palm mute

Intro -
e|---------------------------------------------------------|
B|---------------------------------------------------------|
G|-----9------7-----9----------7-----9------7--12--14---9--|
D|-2---9---5--7--2--9--5xxxxx--7--2--9---5--7--12--14---9--|
A|-2---7---5--5--2--7--5xxxxx--5--2--7---5--5--10--12---7--|
E|-0-------3-----0-----3xxxxx-----0------3-----------------|

Verse - "Hope Unknown.." (After Bass)
e|----------------7x--9x---6x--7x--4x--6x------------|
B|----------------8x--10x--7x--8x--5x--7x------------|
G|-----------------------------------------------10--|
D|--7--9--5--------------------------------9xxxx-10--|
A|--7--9--5--------------------------------9xxxx-8---|
E|--5--7--3--------------------------------7xxxx-----|

Pre Chorus -
e|---------------------|
B|---------------------|
G|---------------------|
D|-2xxxxxxxxxxxxxx--2--|
A|-2xxxxxxxxxxxxxx--2--|
E|-0xxxxxxxxxxxxxx--0--|
[ Tab from: http://www.guitartabs.cc/tabs/a/afi/total_immortal_tab_ver_2.html ]
Chorus
e|---------------------------------------------------------|
B|---------------------------------------------------------|
G|-------7--9x-9-9x-7-9x-9-12----------7--9-11-12-14-------|
D|-2--5--7--9x-9-9x-7-9x-9-12----2--5--7--9-11-12-14----2--|
A|-2--5--5--7x-7-7x-5-7x-7-10----2--5--5--7-9--10-12----2--|
E|-0--3--------------------------0--3-------------------0--|

Bridge -
e|---------------------------------------------------------------|
B|---------------------------------------------------------------|
G|--99---99--99----99-99-77--99-99-99--99--99-99-10-10-10-----9--|
D|--99---99--99----99-99-77--99-99-99--99--99-99-10-10-10-----9--|
A|--77---77--77----77-77-55--77-77-77--77--77-77--8--8--8-----7--|
E|---------------------------------------------------------------|

=============================================================================== 
Hope unkown. Sometimes just waking is surreal. I walk right through the nameless ones. 
I know that hope's unknown. Sometimes the water feels so real. 
As I walk through it fills my lungs, my god, I'm drowning. 

This day never seems to end. This pain, never. The rage I will not let go. 
I hear them calling. I feel them gnawing out holes through flawless souls. 

So alone. Sometimes I swear that I can hear the taunting of the voiceless ones.
I fear that I alone fear those ceased to feel they're alone inside of this place.
I am the misplaced. 

Now every face, it looks familiar...
then every face would melt away until.. n
ow everyone, do you know, I know your deception?


Comments