Afi - Total Immortal Chords & Tabs

 

Total Immortal Chords & Tabs

Afi Chords & Tabs

Version: 3 Type: Bass Tab 0 ratings
1 star 2 stars 3 stars 4 stars 5 stars
comments

Total Immortal Bass Tab

AFI
Total Immortal
	
Intro
G---------------------------------------7-9-7---]
D---------------------------------5-7-9-------9-]
A777777-----------5555555---777----------------]
E----------333333-------------------------------]

Intro 2
G-------------------------9-]
D--------------------5-7----]
A77777-------55555---------]
E-------33333---------------]

Verse 
Part 1
G-----------------------------------------------------------]
D-----------------------------------------------------------]
A77775555-------7777------5555-77775555------------------]
E------------3333------3333-----------------3333---5-6-3333-]
[ Tab from: http://www.guitartabs.cc/tabs/a/afi/total_immortal_btab_ver_3.html ]
Part 2
G-----------------------------------------------------------]
D-----------------------------------------------------------]
A7777-5555-------7777------5555-77775555----------------8-]
E------------3333------3333-----------------3333---77777----]

Pre-Chorus
A--777777777777777777777---]

Chorus	Part 1
G--------------------------------------------]
D--------------------------------------55555-]
A---77777777----------55555555--7-5-7-------]
E------------3333333-------------------------]

Part 2
G-----------------------------------------7777-]
D-------------------------------------4-5------]
A---77777777----------555555555---7-7----------]
E------------3333333---------------------------]

Repeat all until the bridge

Bridge	Part 1	Part 2
G-----------------]	[----------------------------2222222222222-]
D-222222222222222-]	[-222222222222-----------------------------]
A-----------------]	[--------------222222222222----------------]
E-----------------]	[------------------------------------------]

This is the easy version of the song. Have fun!
Comments