Afi - Total Immortal Chords & Tabs

 

Total Immortal Chords & Tabs

Afi Chords & Tabs

Version: 1 Type: Bass Tab 0 ratings
1 star 2 stars 3 stars 4 stars 5 stars
comments

Total Immortal Bass Tab

Song: Total Immortal
Arists: AFI
Tabbed By: Alysia Freshcoln *GerBeLFooD@aol.com* 


intro:

g|----------------------------------7-9-7------------------------------9-|
d|----------------------------5-7/9-------9\---------------------5--7--9-|
a|-----7-------5---------7-------------------------7---------5-----------|
e|-0-------3--------0--------------------------0--------3----------------|

verse:

g|-----------------------------------------------------------------------------------l
d|-----------------------------------------------------------------------------------l
a|--7\---5-------7\-------5-----7\---5---------------------7\---5----------7\------5-l
e|----------3---------3------------------3----5--6--3---------------3-----------3----l
[ Tab from: http://www.guitartabs.cc/tabs/a/afi/total_immortal_btab.html ]
gl---------------------l
dl---------------------l
al---7\---5----------8-l
el--------3---7--------l


pre chorus:

|------over and over----|
|----(sliding at end)---|
|----------7------------|
|-----------------------|

chorus:

|-------------------(first half)-----------------------------|
|------------------------------------------------------------|
|--7----7-5-7----------2-3-4-5----5-4-5-6-7--5--7--------5-6-|
|-------------2-3----3-----------------------------3--7------|

|-------------(second half)-------------------------/11------|
|------------------------------------------------/9-----12---|
|--7----7-5-7----------2-3-4-5----5-4-5-6--X--7--------------|
|-------------2-3----3---------------------------------------|

I'm not sure if these are right
Comments