Afi - Todays Lesson Chords & Tabs

 

Todays Lesson Chords & Tabs

Afi Chords & Tabs

Version: 3 Type: Tab 0 ratings
1 star 2 stars 3 stars 4 stars 5 stars
comments

Todays Lesson Tab

Tuning:Standard
^-Down Strum
 ~-Up Strum 
 /-Slide  
 .-Palm Mute
 Bass Intro leads into *Guitar Feedback* which leads into the Drums. Then an actual
intro for guitar comes in.
 (SO FEEDBACK THEN THIS INTRO)   
 
Intro
|--------------------------|
|--------------------------|  
|--------------------------|
|-2-5--9-7----2-5--999999--|*Let Chords Ring Except The Last Six*
|-2-5--9-7----2-5--999999--|
|-0-3--7-5----0-3--777777--|

Chorus:*DO BOTH PART TOGETHER TWICE* ~ *PLAY CHORDS QUICKLY*
|--------------------------|   |-------------------|
|--------------------------|   |-------------------|
|--------------------------|   |-------------------|*Play This The 4th Time*
|-2-55555-999-7-777--------|   |-2-55555-55555555--|
|-2-55555-999-7-777--(x3)--|   |-2-55555-55555555--|
|-0-33333-777-5-555--------|   |-0-33333-33333333--|
  ^ ^~~^~ ^~^ ~ ^~^              ^ ^~~^~ ^~^~^~^~

Chorus Continued
|--------------------------------------------------------|
|--------------------------------------------------------|On The Last Repeat
|--------------------------------------------------------|Hold The Last 
|-2-555555-777-9-999---9-1111111111--9-1111111111--------|Chord
|-2-555555-777-9-999---9-1111111111--9-1111111111-(x4)---|
|-0-333333-555-7-777---7--9-9-9-9-9--7--9-9-9-9-9--------|
  ^ ^~^~^~ ^~^ ~ ~^~   ^  ^ ~ ~ ^ ~  ^  ^ ~ ~ ^ ~

 **Drums And More Feed Back**
***Then There's A Pickscrape***


Chorus:*DO BOTH PART TOGETHER TWICE* ~ *PLAY CHORDS QUICKLY*
|--------------------------|   |-------------------|
|--------------------------|   |-------------------|
|--------------------------|   |-------------------|*Play This The 4th Time*
|-2-55555-999-7-777--------|   |-2-55555-55555555--|
|-2-55555-999-7-777--(x3)--|   |-2-55555-55555555--|
|-0-33333-777-5-555--------|   |-0-33333-33333333--|
  ^ ^~~^~ ^~^ ~ ^~^              ^ ^~~^~ ^~^~^~^~
[ Tab from: http://www.guitartabs.cc/tabs/a/afi/todays_lesson_tab_ver_3.html ]
Chorus Continued
|--------------------------------------------------------|
|--------------------------------------------------------|On The Last Repeat
|--------------------------------------------------------|Hold The Last 
|-2-555555-777-9-999---9-1111111111--9-1111111111--------|Chord
|-2-555555-777-9-999---9-1111111111--9-1111111111-(x4)---|
|-0-333333-555-7-777---7--9-9-9-9-9--7--9-9-9-9-9--------|
  ^ ^~^~^~ ^~^ ~ ~^~   ^  ^ ~ ~ ^ ~  ^  ^ ~ ~ ^ ~

    ****No Drums Or Bass For The Palm Muted Part****
           ~Pickscrape Somehwere In This Part~
Chorus:*DO BOTH PART TOGETHER TWICE* ~ *PLAY CHORDS QUICKLY*
|--------------------------|   |-------------------|
|--------------------------|   |-------------------|
|--------------------------|   |-------------------|*Play This The 4th Time*
|-2-55555-999-7-777--------|   |-2-55555-55555555--|
|-2-55555-999-7-777--(x3)--|   |-2-55555-55555555--|
|-0-33333-777-5-555--------|   |-0-33333-33333333--|
  ^ ^~~^~ ^~^ ~ ^~^              ^ ^~~^~ ^~^~^~^~
|..................................................|


Chorus:*DO BOTH PART TOGETHER TWICE* ~ *PLAY CHORDS QUICKLY*
|--------------------------|   |-------------------|
|--------------------------|   |-------------------|
|--------------------------|   |-------------------|*Play This The 4th Time*
|-2-55555-999-7-777--------|   |-2-55555-55555555--|
|-2-55555-999-7-777--(x3)--|   |-2-55555-55555555--|
|-0-33333-777-5-555--------|   |-0-33333-33333333--|
  ^ ^~~^~ ^~^ ~ ^~^              ^ ^~~^~ ^~^~^~^~

Outro
|--------------------------------------------------------|
|--------------------------------------------------------|On The Last Repeat
|--------------------------------------------------------|Hold The Last 
|-2-555555-777-9-999---9-1111111111--9-1111111111--------|Chord
|-2-555555-777-9-999---9-1111111111--9-1111111111-(x4)---|
|-0-333333-555-7-777---7--9-9-9-9-9--7--9-9-9-9-9--------|
  ^ ^~^~^~ ^~^ ~ ~^~   ^  ^ ~ ~ ^ ~  ^  ^ ~ ~ ^ ~

                   ****End With Feedback****

             AFI KICKS SO MUCH ASS...THERE THE BEST!!!
                       PLEASE RATE THIS TAB
           E-MAIL ME WITH CORRECTIONS IF ANYTHINGS WRONG:
                      travis_cook03@hotmail.com
                               OR AT
                      get_fighted10@hotmail.com
Comments