Afi - This Time Imperfect Chords & Tabs

 

This Time Imperfect Chords & Tabs

Afi Chords & Tabs

Version: 2 Type: Tab 0 ratings
1 star 2 stars 3 stars 4 stars 5 stars
comments

This Time Imperfect Tab

   
Tune your guitar a half a step lower (E flat tuning)
[ Tab from: http://www.guitartabs.cc/tabs/a/afi/this_time_imperfect_tab_ver_2.html ]
Intro 
        G5                 D                    Em
|------------------|-------------------|---------------------
|------------------|-------------------|---------------------
|---0------0-----0-|----0-----0-----0--|----0-----0----------
|-----5------5-----|------4-----4------|------2-----2-----4--
|-------5------5---|-5------5-----5----|--------2-----2------
|-3----------------|-------------------|--0------------------
                                                   
                                                          /
Chorus:                    Start playing the chords      /  = number of strums
                                                        /
       Am       D           Em                         /
|-------------------|-----------------             
|-----/--/-----/--/-|----/--/--/--/---
|----/--/-----/--/--|---/--/--/--/----
|---/--/-----/--/---|--/--/--/--/-----
|--/--/-----/--/----|-/--/--/--/------
|-------------------|-----------------
       Em                G            D        C      1.      Em     C      D
|----------------|----------------|-----------------   |----------------------
|----/--/--/--/--|----/--/--/--/--|----/--/---/--/--   |----/--/------/-----/-
|---/--/--/--/---|---/--/--/--/---|---/--/---/--/---   |---/--/------/-----/--
|--/--/--/--/----|--/--/--/--/----|--/--/---/--/----   |--/--/------/-----/---
|-/--/--/--/-----|-/--/--/--/-----|-/--/---/--/-----   |-/--/------/-----/----
|----------------|----------------|-----------------   |----------------------
    play this, do ending 1 then play it again and      emphasize on the C and D
    do ending 2

2.    Em
|---------------
|----/--/--/--/-
|---/--/--/--/--
|--/--/--/--/---
|-/--/--/--/----
|---------------


Verse 2
|---------10-------------------------------------7--7--7---8-10-8-7------------
|-8-8-7-7----10-12-12-8-8-7-7------------------5--5--5---5---------------------
|-----------------------------9----9---9-----------------------------9--9--9---
|-------------------------------9----9---9----------------------------9--9--9--
|---------------------------------7----7---7---------------------------7--7--7-
|------------------------------------------------------------------------------

Bridge
       Em               G               Em             A          G     
|---------------|---------------|------------------|--------------------
|---------------|---------------|------------------|--------------------
|---0----0------|--0------0-----|---0-----0--------|--------------------
|-----4----4----|----4------4---|-----4-----4------|----4-------0-------
|-------2----2--|------2------2-|-------2-----2----|--0---0-------4-----
|-0-------------|-3------3------|-0-------------0--|--------3-------2---

Go back to the chorus and maybe use some overdrive or distortion but not a lot
Comments