Afi - This Time Imperfect Chords & Tabs

 

This Time Imperfect Chords & Tabs

Afi Chords & Tabs

Version: 1 Type: Tab 0 ratings
1 star 2 stars 3 stars 4 stars 5 stars
comments

This Time Imperfect Tab

AFI - This Time Imperfect
By:Andrew (Guitarguyx182@belg88.com)

heres the new hidden song off sing the sarrow
[ Tab from: http://www.guitartabs.cc/tabs/a/afi/this_time_imperfect_tab.html ]
Intro/Verse
e|---------------------------------------------------------------------------|
B|---------------------------------------------------------------------------|
G|------------3-------------6----6---------8---------------------------------|
D|-------4---------------6----6-----6----8---8-------------------------------|
A|----4-----4----4---4-----------------6---------8/9-8-8/9-------------------|
E|-2-------------------------------------------------------------------------|
Pre Chorus
e|---------------------------------------------------------------------------|
B|---------------------------------------------------------------------------|
G|------6---8----------------------------------------------------------------|
D|--6---6---8----------------------------------------------------------------|
A|--6---4---6----------------------------------------------------------------|
E|--4------------------------------------------------------------------------|
Chorus
e|---------------------------------------------------------------------------|
B|---------------------------------------------------------------------------|
G|-8-8--------6-6-4-4--8--4-6------------------------------------------------|
D|-8-8----4-4-6-6-4-4--8--4-6------------------------------------------------|
A|-6-6----4-4-4-4-2-2--6--2-4------------------------------------------------|
E|------1/2-2----------------------------------------------------------------|
Verse 2
e|-------------9-------------------------------------------------------------|
B|--7--7-6-6------9-11-11--7-7-6-6-------------------------------------------|
G|-----------------------------------8---------8-----8-----------------------|
D|--------------------------------------8-------8------8---------------------|
A|-----------------------------------------6-------6------6------------------|
E|---------------------------------------------------------------------------|

e|------6---6----6----7----7---6-----6---4---------2------2--1-2-------------|
B|--4-----4----4----4----4---4-----4---------4-4----4-4-----------4-4--4-----|
G|---------------------------------------------------------------------------|
D|---------------------------------------------------------------------------|
A|---------------------------------------------------------------------------|
E|---------------------------------------------------------------------------|

e|-----6----6----6-------7-----7---9--7-6------------------------------------|
B|--4-----4-----4----4------4------------------------------------------------|
G|---------------------------------------------8------8----8-----------------|
D|--------------------------------------------8-----8------8-----------------|
A|------------------------------------------6-----6--------6-----------------|
E|---------------------------------------------------------------------------|
Bridge
e|----------------------------11-14-13-9-------------------------------------|
B|---------------------------------------------------------------------------|
G|---------------------------------------------------------------------------|
D|---------4---------4------------------------------4--------4-------4-------|
A|-------4---4----4-----4-------------------------4---4---4----4----4---4----|
E|---2-----------2-----------------------------2---------2--------2----------|

e|---------------------------------------------------------------------------|
B|---------------------------------------------------------------------------|
G|---------------------------------------------------------------------------|
D|---------------------------------------------------------------------------|
A|-6--8--9--11--6--8-9--11---------------------------------------------------|
E|---------------------------------------------------------------------------|
Comments