Afi - This Time Imperfect Chords & Tabs

 

This Time Imperfect Chords & Tabs

Afi Chords & Tabs

Version: 1 Type: Bass Tab 0 ratings
1 star 2 stars 3 stars 4 stars 5 stars
comments

This Time Imperfect Bass Tab

THIS TIME IMPERFECT 
by AFI
tabbed by Thod_Leach

okay...this song was recorded down a half step...D# G# C# F#
this sounds 100% correct

play nothing until middle of chorus 2nd chord
|--------------------------------------------|
|-----12-------9----9-10-12--10-9-10---------|
|-9-9----9-10----10-------------------10-9-7-|
|--------------------------------------------|

with drums
|----------------------------------------------------|
|----------------------------------------------------|
|----0-2-3-5-5--5/7------7-7-9-10--12-10-9-9--10-9-7-|
|-3-----------------0--------------------------------|

verse
|-----------------------------------------------------------|
|-----------------------------------------------------------|
|----0-2-3-5-5--5/7------7-7-9-10--12-10-9----10-9-7--------|
|-3-----------------0----------------------10---------0-0-2-|

|--------------------------------------------------------------|
|--------------------------------------------------------------|
|----0-2-3-5-5--5/7---------0-2-3-5-5--5/7-----7-7-7-7-7-7-7-7-|
|-3-----------------0-0-3-5----------------0-0-----------------|
[ Tab from: http://www.guitartabs.cc/tabs/a/afi/this_time_imperfect_btab.html ]
chorus (x2)
|---------------------------------------------------------------|
|---------------------------------------------------------------|
|-------------------5-----------------2---2-3-5--5-4-3-4--4-4-4-|
|-0--0--0-0-0-0-2-2---2-3--3--3-3-3-3---3-----------------------|

|---------------------------|
|---------------------------|
|-----------3-3-3-3-5-5-5-5-|
|-0--0--0-0-----------------|

quiet part
|------------------------|
|------------------------|
|-7<-harmonic sustained--|
|----for 8 measures------|

all harmonics (repeat several times)
|-----12----------12------12----------12-|
|--------------7-------------------7-----|
|-7--------7----------7--------7---------|
|----------------------------------------|

build
|------------------------------------------------------------------------------|
|------------------------------------------------------------------------------|
|-7<-strum the hell out of this note then slide up and down the neck afewtimes-|
|------------------------------------------------------------------------------|

repeat chorus

tag (substitute for final B and C# chords)
|----------------------------------------------------------|
|----------------------------------------------------------|
|-7--7--5--5--3--3--3-3-5--5--5-5-----------7--7--5--5--3\-|
|---------------------------------0--0--0-0----------------|
Comments