Afi - This Celluloid Dream Chords & Tabs

 

This Celluloid Dream Chords & Tabs

Afi Chords & Tabs

Version: 5 Type: Tab 0 ratings
1 star 2 stars 3 stars 4 stars 5 stars
comments

This Celluloid Dream Tab

*~*Tab by Jimmy Pham(Midnytedragon80)*~*

  This is my first tab so I might be wrong on it but it sounds right to me... please
rate this tab and tell me what i messed up on and what i did right and tell me if there
are any suggestions

[\]=slide
[x]=muted


Intro                            (0:00-0:07)
|------------------------------------------|
|------------------------------------------|
|-6-6--6\5--66-6--6-5---6-6--6\5--6-6-66-5-|
|-8-8--8\6--44-4--4-6---8-8--8\6--4-4-44-6-|
|------------------------------------------|
|------------------------------------------|

                                 (0:08-0:15)
|------------------------------------------|
|------------------------------------------|
|-----6-6-----6-6-----6-6-----6-6----------|
|-8-8-4-4-4-4-4-4-8-8-4-4-4-4-4-4----------|
|-6-6-----2-2-----6-6-----2-2--------------|
|------------------------------------------|

                                 (0:16-0:23)
|------------------------------------------|
|------776-------------776-9-7-6-----------|
|--------------685---------------6---------|
|-8-8------8-8-----8-8---------------------|
|------------------------------------------|
|------------------------------------------|

Verse                            (0:24-0:30)
|------------------------------------------|
|------------------------------------------|
|------------------------------------------|
|-33333---------------33333-----------6\8/3|
|-11111-666-44444-666-11111-44444-666-4\9/1|
|-------444-22222-444-------22222-444------|
                                                This is played at the same 
                                 (0:31-0:38)    Time as the one next to it
|------------------------------------------|    |-----------------------|
|------------------------------------------|    |-----------------------|
|------------------------------------------|    |-------6-6---------6-6-|
|-33333---------------33333-----------6\8/3|    |-888888-8-8-8888888-8--|
|-11111-666-44444-666-11111-44444-666-4\6/1|    |-----------------------|
|-------444-22222-444-------22222-444------|    |-----------------------|

Interlude                        (0:39-0:46)
|------------------------------------------|
|------------------------------------------|
|-----6-6-----6-6-----6-6-----6-6----------|
|-8-8-4-4-4-4-4-4-8-8-4-4-4-4-4-4----------|
|-6-6-----2-2-----6-6-----2-2--------------|
|------------------------------------------|

Verse                            (0:47-0:54)
|------------------------------------------|
|------------------------------------------|
|------------------------------------------|
|-33333---------------33333-----------6\8/3|
|-11111-666-44444-666-11111-44444-666-4\6/1|
|-------444-22222-444-------22222-444------|

                                 (0:55-1:03)
|------------------------------------------|    |-----------------------|
|------------------------------------------|    |-----------------------|
|------------------------------------------|    |-------6-6---------6-6-|
|-33333---------------33333-----------6\8/3|    |-888888-8-8-8888888-8--|
|-11111-666-44444-666-11111-44444-666-4\6/1|    |-----------------------|
|-------444-22222-444-------22222-444------|    |-----------------------|

Pre-Chorus                       (1:03-1:11)
|------------------------------------------|
|------------------------------------------|
|----666----------666555-------------------|
|-888---666888-888------888----------------|
|------------------------------------------|
|------------------------------------------|

                                 (1:12-1:20)
|------------------------------------------|
|------------------------------------------|
|----666----------666555-------------------|
|-888---666888-888------888----------------|
|------------------------------------------|
|------------------------------------------|

Chorus                                           (1:21-1:28)
|----------------------------------------------------------|
|----------------------------------------------------------|
|----------------------------------------------------------|
|-7-7--7-7-x-x-x-5-5--5-5-x-x-x-9-9--9-9-x-x-x-3-3--3-3--3-|
|-7-7--7-7-x-x-x-5-5--5-5-x-x-x-9-9--9-9-x-x-x-3-3--3-3--3-|
|-7-7--7-7-x-x-x-5-5--5-5-x-x-x-9-9--9-9-x-x-x-3-3--3-3--3-|

                                               (1:29-1:37)
|--------------------------------------------------------|
|--------------------------------------------------------|
|--------------------------------------------------------|
|-7-7--7\9/5-5-5--5/3\9-9-9--9\12/3-3--------------------|
|-7-7--7\9/5-5-5--5/3\9-9-9--9\12/3-3--------------------|
|-7-7--7\9/5-5-5--5/3\9-9-9--9\12/3-3--------------------|

Interlude                        (1:38-1:45)
|------------------------------------------|
|------------------------------------------|
|-----6-6-----6-6-----6-6-----6-6----------|
|-8-8-4-4-4-4-4-4-8-8-4-4-4-4-4-4----------|
|-6-6-----2-2-----6-6-----2-2--------------|
|------------------------------------------|
[ Tab from: http://www.guitartabs.cc/tabs/a/afi/this_celluloid_dream_tab_ver_5.html ]
Verse                            (1:46-1:53)
|------------------------------------------|
|------------------------------------------|
|------------------------------------------|
|-33333---------------33333-----------6\8/3|
|-11111-666-44444-666-11111-44444-666-4\6/1|
|-------444-22222-444-------22222-444------|

                                 (1:54-2:00)
|------------------------------------------|    |-----------------------|
|------------------------------------------|    |-----------------------|
|------------------------------------------|    |-------6-6---------6-6-|
|-33333---------------33333-----------6\8/3|    |-888888-8-8-8888888-8--|
|-11111-666-44444-666-11111-44444-666-4\6/1|    |-----------------------|
|-------444-22222-444-------22222-444------|    |-----------------------|

Pre-Chorus                       (2:01-2:10)
|------------------------------------------|
|------------------------------------------|
|----666----------666555-------------------|
|-888---666888-888------888----------------|
|------------------------------------------|
|------------------------------------------|

                                 (2:11-2:20)
|------------------------------------------|
|------------------------------------------|
|----666----------666555-------------------|
|-888---666888-888------888----------------|
|------------------------------------------|
|------------------------------------------|

Chorus                                           (2:21-2:27)
|----------------------------------------------------------|
|----------------------------------------------------------|
|----------------------------------------------------------|
|-7-7--7-7-x-x-x-5-5--5-5-x-x-x-9-9--9-9-x-x-x-3-3--3-3--3-|
|-7-7--7-7-x-x-x-5-5--5-5-x-x-x-9-9--9-9-x-x-x-3-3--3-3--3-|
|-7-7--7-7-x-x-x-5-5--5-5-x-x-x-9-9--9-9-x-x-x-3-3--3-3--3-|

                                               (2:28-2:36)
|--------------------------------------------------------|
|--------------------------------------------------------|
|--------------------------------------------------------|
|-7-7--7\9/5-5-5--5/3\9-9-9--9\12/3-3--------------------|
|-7-7--7\9/5-5-5--5/3\9-9-9--9\12/3-3--------------------|
|-7-7--7\9/5-5-5--5/3\9-9-9--9\12/3-3--------------------|

Bridge                                     (2:37-2:52)
|----------------------------------------------------|
|-----2-2/4/2-1--1--2-2--1--2-1--1--2-2--1--2-3------|
|---3-------------3--3-3--1--1-1--3--3-3--1--1-1-----|
|----------------------------------------------------|
|-1--------------------------------------------------|
|----------------------------------------------------|

                                             (2:53-2:59)
|------------------------------------------------------|
|-1-1-2--222--1-1-2--2-1-1--1-1-2--222--1-1-2\4\6------|
|-3-3-3--333--1-1-1--1-1-0--3-3-3--333--1-1-1\3\5------|
|------------------------------------------------------|
|------------------------------------------------------|
|------------------------------------------------------|

                               (3:00-3:07)
|----------------------------------------|
|----------------------------------------|
|-3-3-66666-----66666-3-3-66666-----6----|
|-3-3-66666-4-4-66666-3-3-66666-4-4-6-66-|
|-1-1-44444-4-4-44444-1-1-44444-4-4-4-66-|
|-----------2-2-----------------2-2---44-|

                               (3:08-3:15)
|----------------------------------------|
|----------------------------------------|
|-3-3-66666-----66666-3-3-66666-----6----|
|-3-3-66666-4-4-66666-3-3-66666-4-4-6-66-|
|-1-1-44444-4-4-44444-1-1-44444-4-4-4-66-|
|-----------2-2-----------------2-2---44-|

Chorus                                           (3:15-3:32)
|----------------------------------------------------------|
|----------------------------------------------------------|
|----------------------------------------------------------|
|-7-7--7-7-x-x-x-5-5--5-5-x-x-x-9-9--9-9-x-x-x-3-3--3-3--3-|
|-7-7--7-7-x-x-x-5-5--5-5-x-x-x-9-9--9-9-x-x-x-3-3--3-3--3-|
|-7-7--7-7-x-x-x-5-5--5-5-x-x-x-9-9--9-9-x-x-x-3-3--3-3--3-|

                                               (3:33-3:40)
|--------------------------------------------------------|
|--------------------------------------------------------|
|--------------------------------------------------------|
|-7-7--7\9/5-5-5--5/3\9-9-9--9\12/3-3--------------------|
|-7-7--7\9/5-5-5--5/3\9-9-9--9\12/3-3--------------------|
|-7-7--7\9/5-5-5--5/3\9-9-9--9\12/3-3--------------------|

Outro                             (3:41-3:47)
|-------------------------------------------|
|-------------------------------------------|
|---11-10-6-/8/6--6/8-6-5-----11-10-6-/8/6--|
|-8-x--x--x-/x/x--x/x-x-x---8-x--x--x-/x/x--|
|-x-9--8--4-/6/4--4/6-4-3---x-9--8--4-/6/4--|
|-6-------------------------6---------------|

              (3:48-4:10)
|-----------------------|
|-----------------------|
|-6/8-6-5---------------|
|-x/x-x-x-6--8-8-8------|
|-4/6-4-3-x--8-8-8------|
|---------4--6-6-6------|

Welll there you have it... my very first and best guitar tab I have ever done.. It should be accurate.

*~*Tab by Jimmy Pham(Midnytedragon80)*~*
Comments