Afi - This Celluloid Dream Chords & Tabs

 

This Celluloid Dream Chords & Tabs

Afi Chords & Tabs

Version: 3 Type: Tab 0 ratings
1 star 2 stars 3 stars 4 stars 5 stars
comments

This Celluloid Dream Tab

   
This song--as all the songs except \"The Leaving Song\" on Sing the Sorrow are--is
supposed to be played dropped a half step (Eb tuning). This is how you play it in
standard, since it\'s really not necessary to drop for this song.

Intro
Guitar 1
E |----------------------------------------------|
B |----------------------------------------------|
G |-66-xx-66-55-66-xx-66-55-66-xx-66-55-66-5-555-|
D |-88-xx-88-66-44-xx-44-66-88-xx-88-66-44-6-666-|
A |----------------------------------------------|
E |----------------------------------------------|

E |-6-6--44-44--2-2--44-44--6-6--44-44--2-2--44-44-|
B |-6-6--66-44--2-2--66-44--6-6--66-44--2-2--66-44-|
G |-6-6--66-55--3-3--66-55--6-6--66-55--3-3--66-55-|
D |-8-8--66-66--4-4--66-66--8-8--66-66--4-4--66-66-|
A |-8-8--44-66--4-4--44-66--8-8--44-66--4-4--44-66-|
E |-6-6--44-44--2-2--44-44--6-6--44-44--2-2--44-44-|

E |-----------------------------------------|
B |-----------------------------------------|
G |---11-10----6/8-5----11-10--13-11-10-----|
D |-8-x--x---8-x/x-x--8-x--x---x--x--x--11--|
A |-x-9--8---x-4/6-3--x-9--8---11-9--8--x---|
E |-6--------6--------6-----------------9---|

Verse
(palm muted)                               (open)
E |----------------------------------------------------|
B |----------------------------------------------------|
G |--------------------666666------------------6-666---|
D |-88888-666666-44444-666666-88888-666666-4-4-6-666-8-|
A |-88888-666666-44444-444444-88888-666666-4-4-4-444-8-|
E |-66666-444444-22222--------66666-444444-2-2-------6-| X2





Verse Guitar 2
E |------------------------------------------------------|
B |------------------------------------------------------|
G |----------66----------66----------66------------------|
D |-88888888----88888888----88888888---------------------|
A |------------------------------------------------------|
E |------------------------------------------------------|

Verse 2 intro
E |------------------------------------------------|
B |------------------------------------------------|
G |------66----------66----------66----------66----|
D |-8-8--66-66--4-4--66-66--8-8--66-66--4-4--66-66-|
A |-8-8--44-66--4-4--44-66--8-8--44-66--4-4--44-66-|
E |-6-6-----44--2-2-----44--6-6-----44--2-2-----44-|

Verse 2
(palm muted)                               (open)
E |--------------------------------------------------|
B |--------------------------------------------------|
G |-----------------------666------------------6-66--|
D |-88888-666666-44444--6-666-88888-666666-4-4-6-666-|
A |-88888-666666-44444--6-444-88888-666666-4-4-4-446-|
E |-66666-444444-22222--4-----66666-444444-2-2-----4-| X2

Guitar 2
E |------------------------------------------------------|
B |------------------------------------------------------|
G |----------66----------66----------66------------------|
D |-88888888----88888888----88888888---------------------|
A |------------------------------------------------------|
E |------------------------------------------------------|

E |------------------------------------------------------|
B |------------------------------------------------------|
G |---------66666666-----------------------------66666666|
D |-88888888----------66666666-88888888--88888888--------|
A |------------------------------------------------------|
E |------------------------------------------------------|

E |------------------| 
B |------------------|
G |-55555555---------|
D |----------88888888|
A |------------------|
E |------------------| x2 (first time palm muted)
[ Tab from: http://www.guitartabs.cc/tabs/a/afi/this_celluloid_dream_tab_ver_3.html ]
Second Time End On This:
E |---------------------------------| 
B |----6----------------------------|
G |-6--6--5-6-8-6-5-----------------|
D |-8-----6-6-6-6-6--666666666------|
A |------------------666666666------|
E |------------------444444444------|
						(^^fade from palm mute to open)
Chorus
E |-------------------------66-6666----|
B |-------------------------77-7777----|
G |-----------------66-6666-88-8888----|
D |-88-8888-44-4444-66-6666-88-8888-66-|
A |-88-8888-44-4444-44-4444-66-6666-66-|
E |-66-6666-22-2222-----------------44-| X2

E |-6-6--44-44--2-2--44-44--6-6--44-44--2-2--44-44-|
B |-6-6--66-44--2-2--66-44--6-6--66-44--2-2--66-44-|
G |-6-6--66-55--3-3--66-55--6-6--66-55--3-3--66-55-|
D |-8-8--66-66--4-4--66-66--8-8--66-66--4-4--66-66-|
A |-8-8--44-66--4-4--44-66--8-8--44-66--4-4--44-66-|
E |-6-6--44-44--2-2--44-44--6-6--44-44--2-2--44-44-|


(palm muted)                               (open)
E |----------------------------------------------------|
B |----------------------------------------------------|
G |--------------------666666------------------6-666---|
D |-88888-666666-44444-666666-88888-666666-4-4-6-666-8-|
A |-88888-666666-44444-444444-88888-666666-4-4-4-444-8-|
E |-66666-444444-22222--------66666-444444-2-2-------6-|  X2

E |-------------------------------------------------------
B |-------------------------------------------------------
G |----------66666666-----------------------------66666666
D |-88888888----------66666666-88888888--88888888---------
A |-------------------------------------------------------
E |-------------------------------------------------------

E |-----------------|
B |-----------------|
G |55555555---------|
D |--------88888888-|
A |-----------------|
E |-----------------|

Chorus
E |-------------------------66-6666----|
B |-------------------------77-7777----|
G |-----------------66-6666-88-8888----|
D |-88-8888-44-4444-66-6666-88-8888-66-|
A |-88-8888-44-4444-44-4444-66-6666-66-|
E |-66-6666-22-2222-----------------44-| X2

Bridge
E |--------------------------------------------------|   
B |-2-----2-2h4p2-1--1--2-2--1--2-2--1--2-2--1--22-4-| 
G |-3-3---------------3--3-3--1--1-1--3--3-3--1------|
D |-3-x----------------------------------------------|   
A |-1-1----------------------------------------------|   
E |-1------------------------------------------------|   

E-------------------------------------|
B-1-1-2--1-1-2--1-1-2--1-1-2--1-1-2-4-|
G-3-3-3--1-1-1--3-3-3--1-1-1--3-3-3-5-|
D-------------------------------------|
A-------------------------------------|
E-------------------------------------| 



        
E |-----9-9-9-9-9----------6666-|   
B |-----1111111111---------7777-|
G |-----1010101010---------8888-|
D |-8-8-1111111111--66666--8888-|
A |-8-8-9-9-9-9-9---66666--6666-|
E |-6-6-------------44444--6666-|	
    11s, not 1s^^

E |-----9-9-9-9-9---------------------|
B |-----1111111111--------------------|
G |-----1010101010---------8888-------|
D |-8-8-1111111111--66666--8888-99/88-|
A |-8-8-9-9-9-9-9---66666--6666-99/88-|
E |-6-6-------------44444--6666-77/66-|

E |-----9-9-9-9-9----------6666-|   
B |-----1111111111---------7777-|
G |-----1010101010---------8888-|
D |-8-8-1111111111--66666--8888-|
A |-8-8-9-9-9-9-9---66666--6666-|
E |-6-6-------------44444--6666-|

E |-----9-9-9-9-9----------------|
B |-----1111111111---------7777--|
G |-----1010101010---------8888--|
D |-8-8-1111111111--66666--8888--|
A |-8-8-9-9-9-9-9---66666--6666--|
E |-6-6-------------44444--6666--|

E |-------------------|
B |-------------------|
G |-------------------|
D |-8--6---33333333-3-|
A |-8--6---33333333-3-|
E |-6--4---11111111-1-|
		       (^^fade from palm mute to open)



Chorus
E |-------------------------66-6666----|
B |-------------------------77-7777----|
G |-----------------66-6666-88-8888----|
D |-88-8888-44-4444-66-6666-88-8888-66-|
A |-88-8888-44-4444-44-4444-66-6666-66-|
E |-66-6666-22-2222-----------------44-| X2

Outro

E |-------------------------------------------|
B |-------------------------------------------|
G |---11-10-6-/8/6--6/8-6-5-----11-10-6-/8/6--|
D |-8-x--x--x-/x/x--x/x-x-x---8-x--x--x-/x/x--|
A |-x-9--8--4-/6/4--4/6-4-3---x-9--8--4-/6/4--|
E |-6------------------------6----------------|

E |-----------------------|
B |-----------------------|
G |-6/8-6-5---------------|
D |-x/x-x-x-6--8-8-8------|
A |-4/6-4-3-x--8-8-8------|
E |---------4--6-6-6------|
Comments