Afi - This Celluloid Dream Chords & Tabs

 

This Celluloid Dream Chords & Tabs

Afi Chords & Tabs

Version: 1 Type: Bass Tab 0 ratings
1 star 2 stars 3 stars 4 stars 5 stars
comments

This Celluloid Dream Bass Tab

   
Artist: AFI
Song: This Celluloid Dream
Album: Sing The Sorrow
Bassist: Hunter
Tuning: Half a Step Down
Tabbed by: Spidey255


Intro                second part
G|------------|-----------------------------|
D|------------|-----------------------------|
A|-1/14~-14\0-|-2-2-22-5555-0-------5555--0-|
E|------------|---------------3-3-33--------|

Verse
G|---------------------------------------------------|
D|--------7-77-----------------7-77------------------|
A|-22002------------5-55-22002-------------------5-0-|
E|------------33223-----------------33-2-3-5-3-2-----|

Second part of intro
Verse

play this before the prechorus
G|--------------------|
D|---------44-2-0-----|
A|-2222222--------4-2-|
E|--------------------|

prechorus
G|-------------------------------------------------|
D|-------------------------------------------------|
A|-2>-5>-0>-2>-2>-5>-4>-5>-2>-5>-9>-10>-12-14>-12>-|
E|-------------------------------------------------|

G|--------------|
D|--------------|
A|-4-5-7-5-4-0>-|
E|--------------|
[ Tab from: http://www.guitartabs.cc/tabs/a/afi/this_celluloid_dream_btab.html ]
Chorus
G|--------------------------------|-----------------------------------------------|
D|--------------------------------|-----------------------------------------------|
A|-22-222--------55-555-7777-0000-|-22-222/7\2---------22-3-55-555/12\5-7777-0000-|
E|--------33-33-------------------|------------33-33333---------------------------|

repeat all from second part of intro

Bridge
G|---------------9---11-|-------------------|----|
D|-9-----9-7h9p7---7----|--2/9--9-7h9p7-----|-7>-|
A|---9------------------|-----9---------7---|----|
E|-----7----------------|-----------------5-|----|

Distorted Bridge
G|----------------------------------------|----------|-------------|-----------|
D|----------------------------------------|----------|-------------|-----------|
A|-22222222-10-10-10-10-99999999-00000000-|-77777777-|-000/333-2-0-|-0000-7777-|
E|----------------------------------------|----------|-------------|-----------|

Back to slow
G|---------------9-------|
D|-9-----9-7h9p7---7-----|
A|---9---------------9>\-|
E|-----7-----------------|

Chorus

Ending Chorus
G|-------------------------------------------------------------------|
D|-------------------------------------------------------------------|
A|-22222222-10-10-10-10-9999-55555-4-5-7-5555-77-5-44-5555-0000-2222-|
E|-------------------------------------------------------------------|

Ending
G|------------------------|
D|------------------------|
A|-5555-77-5-44-55-2-2-2~-|
E|------------------------|
Comments