Afi - Third Season Chords & Tabs

 

Third Season Chords & Tabs

Afi Chords & Tabs

Version: 2 Type: Bass Tab 0 ratings
1 star 2 stars 3 stars 4 stars 5 stars
comments

Third Season Bass Tab

Intro:
g -------------------------------------------|
d -------------------------------------------|
a -5~-------------------6~--5-5-5-5----------|
e -----------6~------------------------------|

g-------------------------------------------------|
d ------------------------------------------------|
a-5~----6-6-6-6-6-6-6-5-5-5-5-5-5-5---------------|
e----6~-------------------------------------------|
[ Tab from: http://www.guitartabs.cc/tabs/a/afi/third_season_btab_ver_2.html ]
Verse:
g -------------------------------------------------------------------------|
d -------------------------------------------------------------------------|
a -5-5-5-5-5------2-2-2-2-2-------4-4-4-4-4--------------------------------|
e --------------4-4---------------2-2---------------4-4-4-5-5-5-4-5-4-5-4--|

Chorus:
g---------------------------------------------------------------------------|
d---------------------------------------------------------------------------|
a -5-5-5-5-5-5-5-5-----------------------6-6-6-6-6-6-6-6-5-5-5-5-5-5-5-5----|
e------------------------6-6-6-6-6-6-6-6------------------------------------|

Bridge:

g --------------------------------------------------------------------------|
d --------------------------------------------------------------------------|
a -5-5-5-5-5-5-5-5---------------------6-6-6-6-6-6-6-6-5-5-5-5-5-4-5-4-5----|
e ----------------------1-1-1-1-1-1-1-1-------------------------------------|
Comments