Afi - Third Season Chords & Tabs

 

Third Season Chords & Tabs

Afi Chords & Tabs

Version: 1 Type: Bass Tab 0 ratings
1 star 2 stars 3 stars 4 stars 5 stars
comments

Third Season Bass Tab

-------------------------------------------------------------------------------
			     "Third Season" - A Fire Inside (AFI)
-------------------------------------------------------------------------------

Tabbed By :  Mj
e-mail:  Mojoe450@hotmail.com

Tuning:  I have no clue.  'Sorry.  This iz my first time tabbing.

G|---------------------------------------------------------------------------|
D|---------------------------------------------------------------------------|
A|---------------------------------------------------------------------------|
E|0---8---1---0---00000000888888881xxxxxx-0-0-0x-----------------------------|

G|---------------------------------------------------------------------------|
D|---------------------------------------------------------------------------|
A|55555---22222---44444---1111000-55555---22222---44444---1111000------------|
E|-----333-----333-----333-------0-----333-----333-----333-------0-----------|

G|---------------------------------------------------------------------------|
D|---------------------------------------------------------------------------|
A|55555---22222---44444---1111000-5555588822222444---------------------------|
E|-----333-----333-----333-------0----------------33333111-------------------|

G|---------------------------------------------------------------------------|
D|---------------------------------------------------------------------------|
A|---------------------------------------------------------------------------|
E|0000000088888888111111110000000-00000000888888881111111100000000-----------|
[ Tab from: http://www.guitartabs.cc/tabs/a/afi/third_season_btab.html ]
G|---------------------------------------------------------------------------|
D|---------------------------------------------------------------------------|
A|55555---22222---44444---1111000-55555---22222---44444---1111000------------|
E|-----333-----333-----333-------0-----333-----333-----333-------0-----------|

G|---------------------------------------------------------------------------|
D|---------------------------------------------------------------------------|
A|55555---22222---44444---1111000-5555588822222444---------------------------|
E|-----333-----333-----333-------0----------------33333111-------------------|

G|---------------------------------------------------------------------------|
D|---------------------------------------------------------------------------|
A|---------------------------------------------------------------------------|
E|0000000088888888111111110000000-00000000888888881111111100000000-----------|

G|---------------------------------------------------------------------------|
D|---------------------------------------------------------------------------|
A|---------------------------------------------------------------------------|
E|0000000033333333666661110000000-000000003333333366666111000000--10---1---0-|

G|---------------------------------------------------------------------------|
D|---------------------------------------------------------------------------|
A|---------------------------------------------------------------------------|
E|0000000088888888111111110000000-00000000888888881111111100000000-----------|

G|---------------------------------------------------------------------------|
D|---------------------------------------------------------------------------|
A|---------------------------------------------------------------------------|
E|0000033366666666-0000033366666666-0000033366666888-1---0-0-0---------------|


That's aboot it.  I've been over it several times.  If you find a mistake or I
messed some part up really bad, email me.  Okay, that's it.  Enjoi...Peace.
  --Mj
Comments