Afi - The Leaving Song Chords & Tabs

 

The Leaving Song Chords & Tabs

Afi Chords & Tabs

Version: 3 Type: Tab 0 ratings
1 star 2 stars 3 stars 4 stars 5 stars
comments

The Leaving Song Tab

   
Am      B       C       D       Em      G       ~ 
|--0--| |--2--| |--0--| |--2--| |--0--| |--3--| |-----|
|--1--| |--0--| |--1--| |--3--| |--0--| |--3--| |-----|
|--2--| |--2--| |--0--| |--2--| |--0--| |--0--| |-----|
|--2--| |--1--| |--2--| |--0--| |--2--| |--0--| |--0--|
|--0--| |--2--| |--3--| |-----| |--2--| |--2--| |--0--|
|-----| |-----| |-----| |-----| |--0--| |--3--| |--2--|

Note: ~  = the note between Em and G
      PM = palm mute
      p  = pull off
      s  = slide down (drag finger)
      /  = hammer on/slide up

nearly every note is not hit only once, in order to save space in tabbing the
chords are written once each, even though they may be strummed. as goes for
other notes too, consult the actual song for rhythm.


intro:
|--0---0--|
|--0---0--|
|--0---4--|
|--2---2--|
|--2---2--|
|--0---0--|

   Em  Ex
        ^(Em with your pinky on 4d)

Verse1:
|--0-----3--2--0---0--3-----0----0-----3--2--0--0--3-----0--|
|--0-----3--3--1---1--3-----0----0-----3--3--1--1--3-----0--|
|--0-----0--2--2---0--0-----0----0-----0--2--2--0--0-----0--|
|--2--0--0--0--2---2--0--0--2----2--0--0--0--2--2--0--0--2--|
|--2--0--2-----0---3--2--0--2----2--0--2-----0--3--2--0--2--|
|--0--2--3------------3--2--0----0--2--3-----------3--2--0--|
   
   Em ~  G  D  Am  C  G  ~  Em   Em ~  G  D  Am C  G  ~  Em


Verse2:
|--0--2--2--3/2--0---0------2--|
|--1--3--0--0-0--0---1------3--|
|--0--2--2--2-2--0---0--2---2--|
|--2--0--1--1-1--2---2--2---0--|
|--3-----2--2-2--2---3--0------|
|----------------0-------------|

   C  D  B  B B  Em  C  Am  D
                        ^(only the bottom of Am)

Verse1:
|--0-----3--2--0---0--3-----0----0-----3--2--0--0--3-----0--|
|--0-----3--3--1---1--3-----0----0-----3--3--1--1--3-----0--|
|--0-----0--2--2---0--0-----0----0-----0--2--2--0--0-----0--|
|--2--0--0--0--2---2--0--0--2----2--0--0--0--2--2--0--0--2--|
|--2--0--2-----0---3--2--0--2----2--0--2-----0--3--2--0--2--|
|--0--2--3------------3--2--0----0--2--3-----------3--2--0--|
   
   Em ~  G  D  Am  C  G  ~  Em   Em ~  G  D  Am C  G  ~  Em

[ Tab from: http://www.guitartabs.cc/tabs/a/afi/the_leaving_song_tab_ver_3.html ]
Bridge:
|----------------------------------------------|
|----------------------------------------------|
|----------------------------------------------|
|--5--0--9---12--12--0----5--0--9---12--12--0--|
|--7--9--10--10--9---9----7--9--10--10--9---9--|
|----------------------------------------------|
PM............................................

|---------------------------------------------------------------------2--|
|-----0-------------------------------0-------------------------------3--|
|--------0-----0--0---0---0---0----------0-----0--0---0---0---0----2--2--|
|--5--------5--0--9---12--12--0----5--------5--0--9---12--12--0----2--0--|
|--7--------7--9--10--10--9---9----7--------7--9--10--10--9---9----0-----|
|------------------------------------------------------------------------|

                                                                   Am D
                                                                   ^(bottom half)

Into last verse:
|-----------|
|-----------|
|-----------|
|--5--4--0--|
|-----------|
|-----------|


Verse1:
|--0-----3--2--0---0--3-----0----0-----3--2--0--0--3-----0--|
|--0-----3--3--1---1--3-----0----0-----3--3--1--1--3-----0--|
|--0-----0--2--2---0--0-----0----0-----0--2--2--0--0-----0--|
|--2--0--0--0--2---2--0--0--2----2--0--0--0--2--2--0--0--2--|
|--2--0--2-----0---3--2--0--2----2--0--2-----0--3--2--0--2--|
|--0--2--3------------3--2--0----0--2--3-----------3--2--0--|
   
   Em ~  G  D  Am  C  G  ~  Em   Em ~  G  D  Am C  G  ~  Em


End: (solo)
|------------------------------------------------------------------7--7--|
|--5------5-5/7----3----3--8/10-s-7----7--8----5---12-10----8--10--------|
|----4--4--------4----4---------4----4-------4---(0)------0---0---0------|
|------------------------------------------------------------------------|
|------------------------------------------------------------------------|
|------------------------------------------------------------------------|

|--8p7------7-------8------7-----7----------7-------8------7-----7-------|
|---------8---8---8------8---8-----8------8---8---8------8---8-----8-----|
|-------9-------9------9-------9--------9-------9------9-------9---------|
|------------------------------------------------------------------------|
|------------------------------------------------------------------------|
|------------------------------------------------------------------------|
Comments