Afi - The Leaving Song Chords & Tabs

 

The Leaving Song Chords & Tabs

Afi Chords & Tabs

Version: 2 Type: Tab 0 ratings
1 star 2 stars 3 stars 4 stars 5 stars
comments

The Leaving Song Tab

listen to the song for the rhythem.....not hard to figure out :)

        intro
e|-----------------------------
B|-----------------------------
G|-----------------------------
D|--2--------------------------     (strum this until verse starts)
A|--2--------------------------
E|-----------------------------



              verse1
e|-----3---2--------------3----3-----------------------|
B|---------3-----1----1--------------------------------|
G|---------2-----2-------------------------------------|
D|--2------------2----2--------2----2-2-2--------------|   x 2
A|--2--2--------------3---2---------2-2-2--------------|
E|-----3--------------3---3----2-----------------------|

(walked away, heard them say, poison hearts will never change...)

e|------2------3---2--------------------------------|
B|--1---3----------3--------------------------------|
G|------2---2------2--------------------------------|
D|--2-------2---------------------------------------|
A|--3-------2--2------------------------------------|
E|-------------3------------------------------------|

(hard to notice gleaming from the sky when ur staring at the cracks)

e|-----3---2--------------3----3-----------------------|
B|---------3-----1----1--------------------------------|
G|---------2-----2-------------------------------------|
D|--2------------2----2--------2----2-2-2--------------|   x 2
A|--2--2--------------3---2---------2-2-2--------------|
E|-----3--------------3---3----2-----------------------|

(hard to notice wut is passing by with eyes lowered...)


e|---------------------------------------------------------|
B|------------------------------3-3-3-3-3------------------|
G|----------------0-0-0-0-0--------------------------------|
D|--2--2--2--2-2----------------------------4-4-4-4-4------|  x 2 (muted)
A|---------------------------------------------------------|
E|---------------------------------------------------------|

(...all the cracks they lead right 2 me, and all the cracks will crawl right through me)
[ Tab from: http://www.guitartabs.cc/tabs/a/afi/the_leaving_song_tab_ver_2.html ]
e|---------------------------------------------------------------|
B|----0---0---0------0---0----0-----3---3---3------3---3---3-----|
G|------0---0---0--0---0----0---0-0---0---0---0------4---4---4---|
D|--2--------------------------------------------4---------------|  x 2
A|---------------------------------------------------------------|
E|---------------------------------------------------------------|

(...all the cracks they lead right 2 me, and all the cracks will crawl right through me)


e|------2add3--2--|                    e|----------------|
B|--1---3------3--|                    B|----------------|
G|--2---2------2--|                    G|--0-------------|
D|--2-------------|                    D|----4-0---------|     
A|----------------|                    A|----------------|
E|----------------|                    E|----------------|

(as i fell apart)                      (as i)


e|-----3---2--------------3----3-----------------------|
B|---------3-----1----1--------------------------------|
G|---------2-----2-------------------------------------|
D|--2------------2----2--------2----2-2-2--------------|   x 2
A|--2--2--------------3---2---------2-2-2--------------|
E|-----3--------------3---3----2-----------------------|

(walked away, heard them say, poison hearts will never change...)


solo

e|---------------------------------------------7--7-7-8-7----------|
B|--5-5/7----8-10--7--7-8--------12--10--8--10------------7--------|
G|--------7----------------7--9------------------------------------|
D|-----------------------------------------------------------------|  
A|-----------------------------------------------------------------|
E|-----------------------------------------------------------------|


e|--7-----8-7-----7---7-----8-7--------7------7--------------------|
B|----8-------8-----8---8-8-----8--------8------8------------------|
G|------9-------9------------------9-------9-----------------------|
D|-----------------------------------------------------------------|  
A|-----------------------------------------------------------------|
E|-----------------------------------------------------------------|


~el final~
Comments