Afi - The Leaving Song Part 2 Chords & Tabs

 

The Leaving Song Part 2 Chords & Tabs

Afi Chords & Tabs

Version: 3 Type: Tab 0 ratings
1 star 2 stars 3 stars 4 stars 5 stars
comments

The Leaving Song Part 2 Tab

Song: The Leaving Song Pt. II
Album: Sing the Sorrow [2003]
Words and Music by: AFI
Re-written by: Joey Lavoie [whats_this_dump@hotmail.com]

-------------------------------------------------------------------------------
	"The intro to AFI's "The Leaving Song Pt. II" features guitarist Jade 
Puget utilizing two-hand tapping to preform an unaccompanied four bar melodic 
figure. While this technique came to symbolize the playing of metal guitarists
in the Eighties, it had noble beginnings with the likes of Eddie Van Halen
in the late Seventies as simply another tool with which a guitarist could 
express himself. It is in this spirit that Pudet uses the technique here.

	Sure, this solo guitar melody could have been played with a pick and
only one hand on the fretboard, but with two-hand tapping, the phrase becomes
more fluid. Each note follows into the next with a much smoother attack than
that which would be achieved with a pick.

	When preforming this passage, pay careful attention to the two tap-and-
slide moves, in each case making sure your tapping finger slides up to the 19th
fret without over or undershooting it."
-------------------------------------------------------------------------------


"hf" - hammer with left index finger [first time only]
"+" - right hand finger tap
"00" - 0
"v" - bend string 1/4 step
"\/\/\" - vibrato
"NH" - natural harmonic
"." - palm mute
"x" - mute note
"," - tremolo pick

-------------------------------------------------------------------------------


All guitars are tuned down one half step [low to high: Eb Ab Db Gb Bb Eb].

Moderate Rock - 90 beats per minute.

*Note: I know Jade Puget is their only guitarist, but in the studio he recorded
more than one layer of guitar on this track. 


-------------------------------------------------------------------------------


Intro [0:00]:

[Fade In]

Guitar 1 [electric with distortion and heavy reverb]
             
Eb|----------+19--0--15--14-------------|---------+17/19--15--+17--14--15--14------|
Bb|--12hf15-----------------+15/19--15--|--12--15------------------------------+17-|
Gb|-------------------------------------|------------------------------------------|   
Db|-------------------------------------|------------------------------------------|
Ab|-------------------------------------|------------------------------------------|
Eb|-------------------------------------|------------------------------------------|
  <_____________________________________>
              [Play 4 times]




Verse 1 [0:14]:

Guitars 2 and 3 [electric with distortion] 

Eb|------------------------------------|------------------------------|
Bb|--------------------------0---------|--------------------------0---|
Gb|--12-----11----9--9---9-9-0-9-------|--12-----11----9--9---9-9-0-9-|
Db|--xx------x----x--x---x-x-0-x-------|--xx------x----x--x---x-x-0-x-|
Ab|--10------9----7--7---7-7-0-7-------|--10------9----7--7---7-7-0-7-|
Eb|--00---0--0-0--0--0---0-0---0-------|--00---0--0-0--0--0---0-0---0-|

Eb|------------------------------------|------------------------------|
Bb|---------------------12---------0---|--7-------8----8--8--8--8/10--|
Gb|--12------14/16--9-9--9-9-9-9-9-0-9-|--7-------7----7--7--7--7/9---|
Db|--xx------xx-----x-x--x-x-x-x-x-0-x-|--7-------7----5--5--5--5/7---|
Ab|--10------12/14--7-7--7-7-7-7-7-0-7-|--5----5--5----5--5--5--5/7---|
Eb|--00---0--00-----0-0----0-0-0-0---0-|--5----5--5--0----------------|


Eb|------------------------------------|------------------------------|
Bb|---------------------------0--------|------------------------------|
Gb|--12----11----9---9--9--9--0--9-----|--12----11-----9-9--9-9-x-0---|
Db|--xx-----x----x---x--x--x--0--x-----|--xx-----x-----x-x--x-x-x-0---|
Ab|--10-----9----7---7--7--7-----7-----|--10-----9-----7-7--7-7-x-0---|
Eb|--00--0--0-0--0---0--0--0-----0-----|--00--0--0--0--0-0--0-0-------|


Eb|----------------------------------------|------------------------------|
Bb|------------------12-12\10-10-10--------|--7------7-----8-8-8-8/10-8---|
Gb|--12-----14/16--9--9--9-----9--9------0-|--7------7-----7-7-7-7/9--7-0-|
Db|--xx-----xx/----x--x--x-----x--x------0-|--7---7--7-----5-5-5-5/7--5-0-|
Ab|--10-----12/14--7--7--7-----7--7------0-|--5---5--5-----5-5-5-5/7--5-0-|
Eb|--00--0--00/----0-----------0--0---0--0-|--5---5--5---0--------------0-|




Pre-Chorus 1 [0:36]:


Guitar 1 [electric with distortion and heavy reverb]

Eb|-12-x-x-15-x-x-14-x-x-10-x-x-14-x-x-12-x-|-12-x-x-15-x-x-14-x-x-10-10-10-14-14-12--0-|
Bb|-----------------------------------------|-------------------------------------------|
Gb|-----------------------------------------|-------------------------------------------|<-\
Db|-----------------------------------------|-------------------------------------------|   \
Ab|-----------------------------------------|-------------------------------------------|    \
Eb|-----------------------------------------|-------------------------------------------|     \
                                                                                               \
                                                                                      In Unison
Guitars 2 and 3 [electric with distortion]                                                     /
                                                                                              /
Eb|-0---------------------------------------|-0-----------------------------------------|    /
Bb|-0---------------------------------------|-0-----------------------------------------|   /
Gb|-0---------------------------------------|-0-----------------------------------------|<-/
Db|-2---------------------------------------|-2-----------------------------------------|
Ab|-2---------------------------------------|-2-----------------------------------------|
Eb|-0---------------------------------------|-0-----------------------------------------|


Guitar 1 [electric with distortion and heavy reverb]
                                                                        [pick scrape]
Eb|--12-0-0-15-0-0-14-0-0-10-0-0-14-0-12-0---|--12-12-12-15-15-14v----------------------|
Bb|------------------------------------------|--12-12-12-15-15-15v----------------------|
Gb|------------------------------------------|-------------------------------xx\--------|
Db|------------------------------------------|-------------------------------xx\--------|
Ab|------------------------------------------|------------------------------------------|
Eb|------------------------------------------|------------------------------------------|





Chorus 1 [0:47]:

Guitars 2 and 3 [electric with distortion]

Eb|--0------0--7-7-7-7------------------|--0-------7-7-7-7-----------------0--|
Bb|--0---0--0--8-8-8-8------------------|--0-------8-8-8-8---------7-8-10--0--|
Gb|--0---0--0--9-9-9-9--4-4-------------|--0--0-0--9-9-9-9--4--x---7-7-7---0--|
Db|--2---0--2--9-9-9-9--5-5----4h5--4\--|--2--0-0--9-9-9-9--5--x---0-0-0------|
Ab|--2---0--2--7-7-7-7--5-5----5----5\--|--2-------7-7-7-7--5--x-0-0-0-0------|
Eb|--0---0--0--7-7-7-7--3-3--0----------|--0-------7-7-7-7--3----0------------|

Eb|--0------0--7-7-7-7------------------|----------------5-----------7-7---7--|
Bb|--0---0--0--8-8-8-8------------------|----------5-------5---------8-8-0-8--|
Gb|--0---0--0--9-9-9-9--4-4-------------|----5-------5-------5-------9-9-0-9--|
Db|--2---0--2--9-9-9-9--5-5----4h5--4\--|------7----------------7/9--9-9-0-9--|
Ab|--2---0--2--7-7-7-7--5-5----5----5\--|-----------------------7/9--7-7-0-7--|
Eb|--0---0--0--7-7-7-7--3-3--0----------|--5-----5-----5-------------7-7---7--|

Eb|--0--------(0)-----------------------|
Bb|--0--------(0)-----------------------|
Gb|--x--------(x)----7/9--9-9-9---------|
Db|--2--------(2)----x----x-x-x---------|
Ab|--2--------(2)----5/7--7-7-7--0------|
Eb|--0--------(0)----0----0-0-0--0------|





Verse 2 [1:01]:

Guitars 2 and 3 [electric with distortion] 

Eb|------------------------------------|------------------------------|
Bb|--------------------------0---------|--------------------------0---|
Gb|--12-----11----9--9---9-9-0-9-------|--12-----11----9--9---9-9-0-9-|
Db|--xx------x----x--x---x-x-0-x-------|--xx------x----x--x---x-x-0-x-|
Ab|--10------9----7--7---7-7-0-7-------|--10------9----7--7---7-7-0-7-|
Eb|--00---0--0-0--0--0---0-0---0-------|--00---0--0-0--0--0---0-0---0-|

Eb|------------------------------------|------------------------------|
Bb|---------------------12---------0---|--7-------8----8--8--8--8/10--|
Gb|--12------14/16--9-9--9-9-9-9-9-0-9-|--7-------7----7--7--7--7/9---|
Db|--xx------xx-----x-x--x-x-x-x-x-0-x-|--7-------7----5--5--5--5/7---|
Ab|--10------12/14--7-7--7-7-7-7-7-0-7-|--5----5--5----5--5--5--5/7---|
Eb|--00---0--00-----0-0----0-0-0-0---0-|--5----5--5--0----------------|


Eb|------------------------------------|------------------------------|
Bb|---------------------------0--------|--12----10-----8-8--8-8---8---|
Gb|--12----11----9---9--9--9--0--9-----|--12----11-----9-9--9-9-9-9---|
Db|--xx-----x----x---x--x--x--0--x-----|--xx-----x-----x-x--x-x-x-x---|
Ab|--10-----9----7---7--7--7-----7-----|--10-----9-----7-7--7-7-7-7---|
Eb|--00--0--0-0--0---0--0--0-----0-----|--00--0--0--0--0-0--0-0-0-0---|


Eb|----------------------------------------|------------------------------|
Bb|------------------12-12\10-10-10--------|--7------7-----8-8-8-8/10-8---|
Gb|--12-----14/16--9--9--9-----9--9------0-|--7------7-----7-7-7-7/9--7-0-|
Db|--xx-----xx/----x--x--x-----x--x------0-|--7---7--7-----5-5-5-5/7--5-0-|
Ab|--10-----12/14--7--7--7-----7--7------0-|--5---5--5-----5-5-5-5/7--5-0-|
Eb|--00--0--00/----0-----------0--0---0--0-|--5---5--5---0--------------0-|





Pre-Chorus 2 [1:22]:

Guitar 1 [electric with distortion and heavy reverb]

Eb|--12-x-x-15-x-x-14-x-x-10-x-x-14-x-x-12-x-|--12-x-x-15-x-x-14-x-x-10-10-10-14-14-12--0|
Bb|------------------------------------------|-------------------------------------------|   
Gb|------------------------------------------|-------------------------------------------|<-\
Db|------------------------------------------|-------------------------------------------|   \
Ab|------------------------------------------|-------------------------------------------|    \
Eb|------------------------------------------|-------------------------------------------|     \
                                                                                                |
                                                                                       In Unison
Guitars 2 and 3 [electric with distortion]                                                      |
                                                                                               /
Eb|--0---------------------------------------|--0----------------------------------------|    /
Bb|--0---------------------------------------|--0----------------------------------------|   /
Gb|--0---------------------------------------|--0----------------------------------------|<-/
Db|--2---------------------------------------|--2----------------------------------------|
Ab|--2---------------------------------------|--2----------------------------------------|
Eb|--0---------------------------------------|--0----------------------------------------|

[ Tab from: http://www.guitartabs.cc/tabs/a/afi/the_leaving_song_part_2_tab_ver_3.html ]
Guitar 1 [electric with distortion and heavy reverb]
                                                                        [pick scrape]
Eb|--12-0-0-15-0-0-14-0-0-10-0-0-14-0-12-0---|--12-12-12-15-15-14v----------------------|
Bb|------------------------------------------|--12-12-12-15-15-15v----------------------|
Gb|------------------------------------------|-------------------------------xx\--------|
Db|------------------------------------------|-------------------------------xx\--------|
Ab|------------------------------------------|------------------------------------------|
Eb|------------------------------------------|------------------------------------------|




Chorus 2 [1:33]:

Guitars 2 and 3 [electric with distortion]

Eb|--0------0--7-7-7-7------------------|--0-------7-7-7-7-----------------0--|
Bb|--0---0--0--8-8-8-8------------------|--0-------8-8-8-8---------7-8-10--0--|
Gb|--0---0--0--9-9-9-9--4-4-------------|--0--0-0--9-9-9-9--4--x---7-7-7---0--|
Db|--2---0--2--9-9-9-9--5-5----4h5--4\--|--2--0-0--9-9-9-9--5--x---0-0-0------|
Ab|--2---0--2--7-7-7-7--5-5----5----5\--|--2-------7-7-7-7--5--x-0-0-0-0------|
Eb|--0---0--0--7-7-7-7--3-3--0----------|--0-------7-7-7-7--3----0------------|

Eb|--0------0--7-7-7-7------------------|----------------5-----------7-7---7--|
Bb|--0---0--0--8-8-8-8------------------|----------5-------5---------8-8-0-8--|
Gb|--0---0--0--9-9-9-9--4-4-------------|----5-------5-------5-------9-9-0-9--|
Db|--2---0--2--9-9-9-9--5-5----4h5--4---|------7----------------7/9--9-9-0-9--|
Ab|--2---0--2--7-7-7-7--5-5----5----5---|-----------------------7/9--7-7-0-7--|
Eb|--0---0--0--7-7-7-7--3-3--0----------|--5-----5-----5-------------7-7---7--|

Eb|--0------0--7-7-7-7------------------|--0-------7-7-7-7--------------------|
Bb|--0---0--0--8-8-8-8--------------0---|--0-------8-8-8-8---------7-8-10--0--|
Gb|--0---0--0--9-9-9-9--4-4---------0---|--0--0-0--9-9-9-9--4--x---7-7-7---0--|
Db|--2---0--2--9-9-9-9--5-5----4h5--4---|--2--0-0--9-9-9-9--5--x---0-0-0------|
Ab|--2---0--2--7-7-7-7--5-5----5----5---|--2-------7-7-7-7--5--x-0-0-0-0------|
Eb|--0---0--0--7-7-7-7--3-3--0----------|--0-------7-7-7-7--3----0------------|

Eb|------------7-7-7-7------------------|----------------5-----------7-7-0-7--|
Bb|------------8-8-8-8------------------|----------5-------5---------8-8-0-8--|
Gb|------------9-9-9-9--4-4-------------|----5-------5-------5-------9-9-0-9--|
Db|------------9-9-9-9--5-5-----4-5-4---|------7----------------7-9--9-9-0-9--|
Ab|--2---2--2--7-7-7-7--5-5--0--5---5---|-----------------------7-9--7-7-0-7--|
Eb|--0---0--0--7-7-7-7--3-3--0----------|--5-----5-----5-------------7-7-0-7--|
  pm .   .  .                              . . . .       .




Interlude [1:55]:

Guitars 2 and 3 [electric with distortion]

Eb|-------------------------------------|-------------------------------------|
Bb|-------------------------------------|-------------------------------------|
Gb|-------------------------------------|-------------------------------------|
Db|-------------------------------------|-------------------------------------|
Ab|--2-2-2-2---2-2-2----2-2-2-2-2-2-----|--2-2-2-2---2-2-2----2-2-2-2-2-2-----|
Eb|--0-0-0-0---0-0-0----0-0-0-0-0-0-----|--0-0-0-0---0-0-0----0-0-0-0-0-0-----|
  pm . . . .   . . .    . . . . . .        . . . .   . . .    . . . . . . 
                                           
                                         \/\/\                    NH  NH
Eb|-------------------------------------|-------------------------------------|
Bb|-------------------------------------|--------------------------5----------|
Gb|--4-----------5----------------------|----------4/5--4----------5---5------|
Db|--x-----------x----------------------|--7-------x----x--------------5------|
Ab|--2--2-2-2-2--3---2-2-2-2-2-2-2-2----|--5--0-0--2/3--2--2-2-2--------------|
Eb|--0--0-0-0-0------0-0-0-0-0-0-0-0----|-----0-0--0----0--0-0-0--------------|
  pm    . . . .      . . . . . . . .                 

                                                         
Eb|-------------------------------------|--------------7---7-7---7-7-7---7----|
Bb|-------------------------------------|--------------8---8-8---8-8-8---8----|
Gb|--4-----------5----------------------|--------------9---9-9---9-9-9---9----|
Db|--x-----------x----------------------|--7-----------9---9-9---9-9-9---9----|
Ab|--2--2-2-2-2--3---2-2-2-2-2-2-2-2----|--5--2-2-2-0--7---7-7---7-7-7---7----|
Eb|--0--0-0-0-0------0-0-0-0-0-0-0-0----|--0--0-0-0-0--7---7-7---7-7-7---7----|
  pm    . . . .      . . . . . . . .                 



Bridge [2:16]:

Guitar 4 [electric with clean tone]
Pick with fingers
Let notes ring

Eb|--------------------------------------|---------17-------------------------|
Bb|--19------19---------20---(20)--------|--19------------20--(20)------------|
Gb|-----17------17/16------------16---16-|-----17-------------(--)-16---------| <-\
Db|--------------------------------------|--------------------(--)------------|    \
Ab|--19---19----------19-----------19----|--19---19--19---19--(19)----19---19-|     \
Eb|--------------------------------------|------------------------------------|      \
                                                                                      \
Guitars 2 and 3 [electric with distortion]                                      In Unison
                                                                                      /
       [let ring into next measure]           [let ring into next measure]           /
Eb|--7-----------------------------------|--7---------------------------------|     /
Bb|--8-----------------------------------|--8---------------------------------|    /
Gb|--9-----------------------------------|--9---------------------------------| <-/
Db|--9-----------------------------------|--9---------------------------------|
Ab|--7-----------------------------------|--7---------------------------------|
Eb|--7-----------------------------------|--7---------------------------------|

Guitar 4 [electric with clean tone]
Pick with fingers
Let notes ring

Eb|--------------------------------------|--19----17---19--(19)---------------|
Bb|--19------19------20--(20)------------|----------0------(--)---------------|
Gb|-----17------16-------(--)-16---------|----17-----------(--)---------------|
Db|----------------------(--)------------|-----------------(--)---------------|
Ab|--19---19------19-19--(19)----19---19-|--19--19-----19--(19)---------------|
Eb|--------------------------------------|------------------------------------|

Eb|--------------------------------------|---------17-------------------------|
Bb|--19------19---------20--(20)-----19--|--19------------20--(20)--------00--|
Gb|-----17------17/16-----------16-------|-----17----/16------(--)-16---------|
Db|--------------------------------------|--------------------(--)------------|
Ab|--19---19----------19----------19-19--|--19---19-------19--(19)----19--19--|
Eb|--------------------------------------|------------------------------------|

Eb|--------------------------------------|--17-----17----17----17----17-------|
Bb|--19-----19-------20--(20)------------|------------------------------------|
Gb|-----17-----/16-------(--)-16---------|-----17-----17----17----17----17----|
Db|----------------------(--)------------|------------------------------------|
Ab|--19---19------19-19--(19)----19--19--|--19----19----19----19----19----19--|
Eb|--------------------------------------|------------------------------------|

Guitars 2 and 3 [electric with distortion]

Eb|--------------------------------------|---------------------------------------------------|
Bb|--------------------------------------|--13-13-13-13-13-13-13-13-13-13-13-13-13-13--13/16-|
Gb|--8-8-8-8-8-8-8-8-8-8-8-8-8-8---------|--11-11-11-11-11-11-11-11-11-11-11-11-11-11--11/14-|
Db|--7-7-7-7-7-7-7-7-7-7-7-7-7-7---------|--10-10-10-10-10-10-10-10-10-10-10-10-10-10--10/13-|
Ab|--6-6-6-6-6-6-6-6-6-6-6-6-6-6---------|--9--9--9--9--9--9--9--9--9--9--9--9--9--9----9/12-|
Eb|--0-0-0-0-0-0-0-0-0-0-0-0-0-0--0-0----|--0--0--0--0--0--0--0--0--0--0--0--0--0--0---------|

Eb|-------------------------------------------------|----------------------------------------|
Bb|--16-16-16-16-16-16-16-16-16-16-16-16-16-16------|----------------------------------------|
Gb|--14-14-14-14-14-14-14-14-14-14-14-14-14-14------|----------------------------------------|
Db|--13-13-13-13-13-13-13-13-13-13-13-13-13-13------|----------------------------------------|
Ab|--12-12-12-12-12-12-12-12-12-12-12-12-12-12------|----------------------------------------|
Eb|--00-00-00-00-00-00-00-00-00-00-00-00-00-00--0-0-|--7-5-0-7-5-0-7-5-0---------------------|
  pm                                                   . . . . . . . . .
  tremolo pick                                         , , , , , , , , ,



Chorus 3 [2:50]:

Guitars 2 and 3 [electric with distortion]

Eb|--0------0--7-7-7-7------------------|--0-------7-7-7-7-----------------0--|
Bb|--0---0--0--8-8-8-8------------------|--0-------8-8-8-8---------7-8-10--0--|
Gb|--0---0--0--9-9-9-9--4-4-------------|--0--0-0--9-9-9-9--4--x---7-7-7---0--|
Db|--2---0--2--9-9-9-9--5-5----4h5--4\--|--2--0-0--9-9-9-9--5--x---0-0-0------|
Ab|--2---0--2--7-7-7-7--5-5----5----5\--|--2-------7-7-7-7--5--x-0-0-0-0------|
Eb|--0---0--0--7-7-7-7--3-3--0----------|--0-------7-7-7-7--3----0------------|

Eb|--0------0--7-7-7-7------------------|----------------5-----------7-7---7--|
Bb|--0---0--0--8-8-8-8------------------|----------5-------5---------8-8-0-8--|
Gb|--0---0--0--9-9-9-9--4-4-------------|----5-------5-------5-------9-9-0-9--|
Db|--2---0--2--9-9-9-9--5-5----4h5--4---|------7----------------7/9--9-9-0-9--|
Ab|--2---0--2--7-7-7-7--5-5----5----5---|-----------------------7/9--7-7-0-7--|
Eb|--0---0--0--7-7-7-7--3-3--0----------|--5-----5-----5-------------7-7---7--|

Eb|--0------0--7-7-7-7------------------|--0-------7-7-7-7--------------------|
Bb|--0---0--0--8-8-8-8--------------0---|--0-------8-8-8-8---------7-8-10--0--|
Gb|--0---0--0--9-9-9-9--4-4---------0---|--0--0-0--9-9-9-9--4--x---7-7-7---0--|
Db|--2---0--2--9-9-9-9--5-5----4h5--4---|--2--0-0--9-9-9-9--5--x---0-0-0------|
Ab|--2---0--2--7-7-7-7--5-5----5----5---|--2-------7-7-7-7--5--x-0-0-0-0------|
Eb|--0---0--0--7-7-7-7--3-3--0----------|--0-------7-7-7-7--3----0------------|

Eb|------------7-7-7-7------------------|----------------5-----------5--------|
Bb|------------8-8-8-8------------------|----------5-------5---------5--------|
Gb|------------9-9-9-9--4-4-------------|----5-------5-------5-------5--------|
Db|------------9-9-9-9--5-5-----4-5-4---|------7----------------5-5--7--------|
Ab|--2---2--2--7-7-7-7--5-5--0--5---5---|-----------------------7-7--7--5-5---|
Eb|--0---0--0--7-7-7-7--3-3--0----------|--5-----5-----5-------------5--5-5---|
  pm .   .  .                            

Eb|--------------5----------------------|--7-7-7-7--0---------------------------|
Bb|----------7----7--------------0------|--7-7-7-7--0---------------------------|
Gb|-----7-----7----7-7-7-7-7-7---0------|--8-8-8-8--0---------------------------|
Db|-------7--------7-7-7-7-7-7---0------|--9-9-9-9--0---------------------------|
Ab|--5------5--5-----5-5-5-5-5---0------|--9-9-9-9--0--9--9--9---9--9--9--9-----|
Eb|--5---------5-------5-5-5-5----------|--7-7-7-7-----11-11-11--11-11-11-11--0-|

                    NH
Eb|------------------5--(5)-------------|
Bb|------------------5--(5)-------------|
Gb|------------------5--(5)-------------|
Db|-------------------------------------|
Ab|-------------------------------------|
Eb|--7-5-0-7-5-0-0----------------------|
  pm . . . . . . .
trem., , , , , , ,
pick.

----------------------------------------------------------------------------------

Questions? Comments? Hate mail? Send it all over to whats_this_dump@hotmail.com
Comments