Afi - The Leaving Song Part 2 Chords & Tabs

 

The Leaving Song Part 2 Chords & Tabs

Afi Chords & Tabs

Version: 2 Type: Tab 0 ratings
1 star 2 stars 3 stars 4 stars 5 stars
comments

The Leaving Song Part 2 Tab

   
tuned 1/2 step down
this is all tapped
*=palm mute /=slide p=pull h=hammer x=dead note ()=harmonic

eb-7-15/14p10-14p10p7h10-17/19
bb----------------------------
gb----------------------------
db----------------------------
ab----------------------------
Eb----------------------------
play that 3 times then:

eb-7-15/14p10-14p10p7h10-17/19p15h17-14h15--p15------12
bb----------------------------------------------------
gb--------------------------------------------------------
db------------------------------------------------------
ab------------------------------------------------------
Eb------------------------------------------------------

then

eb------------
bb------------
gb12-11-9-9999
db-x-x--x-xxxx
ab10-9--7-7777
Eb-0-0--0-0000
twice
 
then

eb-----------------------------
bb-----------------------------
gb12-14/16-9-9999-7-7777-------
db-x--x/-x-x-xxxx-7-77775555777
ab10-12/14-7-7777-5-55555555777
Eb-0--0/-0-0-0000-5-55553333555
those last 2 figures twice and then:

      *  *     *  *     *   *    *  *      *
eb------------------------------------------------
bb-17-17-17-20-20-20-19-19-19-15-15-15-19-19-17-17
gb------------------------------------------------
db------------------------------------------------
ab------------------------------------------------
Eb------------------------------------------------
       *   *    *  *    *   *
eb------------------------------------------------
bb-17-17-17-20-20-20-19-19-19-15-15-15-19-19-17-17
gb------------------------------------------------
db------------------------------------------------
ab------------------------------------------------
Eb------------------------------------------------

eb--------------------------------------------------------------------
bb-17------20-------19-------15-------19----17-------------20-20-20-19
gb---------------------------------------------------------19-19-19-19
db---14-14----14-14----14-14----14-14----14----14-14-14-14------------
ab--------------------------------------------------------------------
Eb--------------------------------------------------------------------

pick slide

chorus

eb00-0-0---------
bb00-0-0---------
gb00-0-9---------
db22-2-9-5555/777
ab22-2-7-5555/777
Eb00-0-0-3333/555
3 times then:
  ****
eb-----7--------------0--------
bb------8-------------0--------
gb--9----9----7-99999-0-7/99999
db-9-9----9---x/xxxxx-2-x/xxxxx
ab7-----------5/77777-2-5/77777
Eb------------0-00000-0-0-00000


eb------------
bb------------
gb12-11-9-9999
db-x-x--x-xxxx
ab10-9--7-7777
Eb-0-0--0-0000
twice
 
then

eb-----------------------------
bb-----------------------------
gb12-14/16-9-9999-7-7777-------
db-x--x/-x-x-xxxx-7-77775555777
ab10-12/14-7-7777-5-55555555777
Eb-0--0/-0-0-0000-5-55553333555
those last 2 figures twice and then:
[ Tab from: http://www.guitartabs.cc/tabs/a/afi/the_leaving_song_part_2_tab_ver_2.html ]
      *  *     *  *     *   *    *  *      *
eb------------------------------------------------
bb-17-17-17-20-20-20-19-19-19-15-15-15-19-19-17-17
gb------------------------------------------------
db------------------------------------------------
ab------------------------------------------------
Eb------------------------------------------------
       *   *    *  *    *   *
eb------------------------------------------------
bb-17-17-17-20-20-20-19-19-19-15-15-15-19-19-17-17
gb------------------------------------------------
db------------------------------------------------
ab------------------------------------------------
Eb------------------------------------------------

eb--------------------------------------------------------------------
bb-17------20-------19-------15-------19----17-------------20-20-20-19
gb---------------------------------------------------------19-19-19-19
db---14-14----14-14----14-14----14-14----14----14-14-14-14------------
ab--------------------------------------------------------------------
Eb--------------------------------------------------------------------

chorus

eb00-0-0---------
bb00-0-0---------
gb00-0-9---------
db22-2-9-5555/777
ab22-2-7-5555/777
Eb00-0-0-3333/555
3 times then:
  ****
eb-----7--------------0--------
bb------8-------------0--------
gb--9----9----7-99999-0-7/99999
db-9-9----9---x/xxxxx-2-x/xxxxx
ab7-----------5/77777-2-5/77777
Eb------------0-00000-0-0-00000

breakdown
**************************************************
eb------------------------------------------------
bb------------------------------------------------
gb------------------------------------------------
db------------------------------------------------
ab2222-222-222222-2222-2222-222222-2222-222-222222
Eb0000-000-000000-0000-0000-000000-0000-000-000000
*****
eb------------------------------------------------------------
bb------------------------------------------------------------
gb---------------------------------(9)------------------------
db---------9---10----------7-9-10-----(9)-------9--10---79999-
ab2222222--0---0-----------0-0--07---------7----0---0-7-000007
Eb0000000----00----0000000-------0---------0-00---0---0------0


i only have a little bit of this part, too lazy

eb 14-17-15-----------14-14-15-----------14-14-19
bb-----------------------------------------------
gb----------16-16-16------------16-16-16---------
db-----------------------------------------------
ab-----------------------------------------------
Eb-----------------------------------------------

little fill right after this part

eb----------------
bb----------------
gb8888888888888888
dbxxxxxxxxxxxxxxxx
ab6666666666666666
Eb0000000000000000

eb--------------------------------
bb--------------------------------
gb11111111111111111111111111111111
db-x-x-x-x-x-x-x-x-x-x-x-x-x-x-x-x
ab-9-9-9-9-9-9-9-9-9-9-9-9-9-9-9-9
eb-0000000000000000000000000000000

eb------------------------------------------------
bb------------------------------------------------
gb-14-14-14-14-14-14-14-14-14-14-14-14-14-14-14-14
db--x--x--x--x--x--x--x--x--x--x--x--x--x--x--x--x
ab-12-12-12-12-12-12-12-12-12-12-12-12-12-12-12-12-
Eb------------------------------------------------


eb00-0-0---------
bb00-0-0---------
gb00-0-9---------
db22-2-9-5555/777
ab22-2-7-5555/777
Eb00-0-0-3333/555
3 times then:
  ****
eb-----7--------------0--------
bb------8-------------0--------
gb--9----9----7-99999-0-7/99999
db-9-9----9---x/xxxxx-2-x/xxxxx
ab7-----------5/77777-2-5/77777
Eb------------0-00000-0-0-00000

at the end

eb-----------
bb-----------
gb88888988888
dbxxxxxxxxxxx
ab66666766666
Eb00000000000

then slide up and down the neck a bunch and end on

eb(12)
bb(12)
gb(12)
db
ab
eb
Comments