Afi - The Last Kiss Chords & Tabs

 

The Last Kiss Chords & Tabs

Afi Chords & Tabs

Version: 2 Type: Tab 0 ratings
1 star 2 stars 3 stars 4 stars 5 stars
comments

The Last Kiss Tab

   
-------------------------------------------------------------------------------
                            THE LAST KISS - AFI
-------------------------------------------------------------------------------

By: David Crean (shtoops22@hotmail.com)

INTRO:(repeat as necessary)                          final time go here
e|--5--5--5--5--5--5--5--5--5--5--5--5--5--5--5--5--|------------------------|
B|--6--6--6--5--5--5--6--6--8--8--8--6--6--6--8--8--|------------------------|
G|--7--7--7--7--7--7--7--7--7--7--7--7--7--7--7--7--|--10------10------7--10-|
D|--0--0--0--0--0--0--0--0--0--0--0--0--0--0--0--0--|--10--10--10--10--7--10-|
A|--------------------------------------------------|---8--10---8--10--5---8-|
E|--------------------------------------------------|-------8-------8--------|

Chris Lansford's portion...

Verse:
G:-7----------3-5-:
D:-7-8-/-10-3-3-5-:
A:-5-8-/-10-3-1-3-:
E:---6-/-8--1-----:

2nd repetition of verse instead of going from F# to A# and C i believe
(end of above tab) just go straight from F# to C.  This might be a
shitty instruction.  Right before it goes to the chorus it will do
this:

G:-10-9-:
D:-10-7-:
A:-8--7-:

Chorus:
G:-7-5-3---5-:
D:-7-5-3-3-5-:
A:-5-3-1-3-3-:
E:-------1---:
Im certain of something missing from the chorus...Its really bothering
me.  But thats pretty close.

This is what i got for the digitized bit:
G:-7-5-----:
D:-7-5-7-8-:
A:-5-3-7-8-:
E:-----5-6-:
[ Tab from: http://www.guitartabs.cc/tabs/a/afi/the_last_kiss_tab_ver_2.html ]
Please dont ask me, just what i think...
G:-7-5-----10-9-7-5---10-:
D:-7-5-7-8-10-9-7-5-3-10-:
A:-5-3-7-8-8--7-5-3-3-8--:
E:-----5-6----------1----:
-------------------------------------------------------------------------------
		       THE LAST KISS (intro) - AFI
-------------------------------------------------------------------------------

By: Daniel Florez RvltnultrBlu@aol.com
mines almost perfect :)
except for the rythm maybe

e|-5-5-5-5-5-5-5-5-5-5-5-5-5-5-5-5----5-5-5-5-5-5-5-5-5-5-5-5-5-5-5-5--------|
B|-6-6-6-5-5-5-6-6-8-8-8-5-5-5-5-5----6-6-6-5-5-5-6-6-8-8-8-5-5-5-5-5--------|
G|-7-7-7-7-7-7-7-7-7-7-7-5-5-5-5-5----7-7-7-7-7-7-7-7-7-7-7-5-5-5-5-5--------|
D|-0-0-0-0-0-0-0-0-0-0-0-0-0-0-0-0----0-0-0-0-0-0-0-0-0-0-0-0-0-0-0-0--------| x2
A|---------------------------------------------------------------------------|
E|---------------------------------------------------------------------------|
     X X   X X   X   X X   X X          x x   x x   x   x x x x               


-------------------------------------------------------------------------------
			  THE LAST KISS (SOLO) - AFI
-------------------------------------------------------------------------------

By: Evan Chapa [suckerwithnoselfesteem@juno.com]

The other tab on this site say the solo is "digitized", but all Jade is really doing
is just hammering on the following notes:
e|---------------------------------------------------------------------------|
B|---------------------------------------------------------------------------|
G|---------------------------------------------------------------------------|
D|---------------------------------------------------------------------------|
A|--8-888-8-66-666-3-333-44-4-444--------------------------------------------|
E|---------------------------------------------------------------------------|

Just repeat that twice and thats it.  I've found the easiest way to play this is
to put all your fingers of you left hand on the strings to mute them, and hammer on
with your index finger of your right, that way you won't catch the open note.  Mail
me with critisism, praise, or if you can come up with anything better.
Comments