Afi - The Great Disappointment Chords & Tabs

 

The Great Disappointment Chords & Tabs

Afi Chords & Tabs

Version: 2 Type: Tab 0 ratings
1 star 2 stars 3 stars 4 stars 5 stars
comments

The Great Disappointment Tab

   
Artist: A.F.I
Song: The Great Disappointment
Album: Sing The Sorrow
Tuning: C# Ab Db Gb Bb Eb (Drop D down 1/2 A step)

Intro: Clean bit
E|---5-----5------5---6---6-----8---8--6--5---5---5------5-----------5-----5
B|-----6-----6----------------------------------6----6-------5h6-6-6---6----
G|-7-----7-----7----7---7---7-7---7--------------------7---7-------------7--
D|--------------------------------------------------------------------------
A|--------------------------------------------------------------------------
E|--------------------------------------------------------------------------



Distorted bit
E|------5--------5----------6-----6--------5--------8-----8------------------
B|---------6--------6----------------6--------6--------6-----6---------------
G|---7--------7----------7-----7--------7--------7---------------------------
D|---------------------------------------------------------------------------
A|---------------------------------------------------------------------------
E|---------------------------------------------------------------------------


Verse:
E|----------------------------------------------------------5--------5-------
B|-------------------------------------------------------------6-------------
G|---5-/-7--7--7--7----7----7-----5-/-7--7--7--7----7----7--------7----------
D|---x---x--x--x--x----x----x-----x---x--x--x--x----x------------------------
A|---3-/-5--5--5--5----5----5-----3-/-5--5--5--5----5------------------------
E|---------------------------------------------------------------------------
PM  .......   .......  

E|-------------------------------6p5-----5-----6-----6-----5----------------
B|------------------------------------------------------6------------------- 
G|---5-/-7--7--7--7----7----7---------7-----7-----7------------------------- 
D|---x---x--x--x--x----x----x-----------------------------------------------
A|---3-/-5--5--5--5----5----5-----------------------------------------------
E|--------------------------------------------------------------------------
PM  .......

E|----------------------------------------------------------5--------5------
B|-------------------------------------------------------------6------------
G|---5-/-7--7--7--7----7----7-----5-/-7--7--7--7----7----7--------7---------
D|---x---x--x--x--x----x----x-----x---x--x--x--x----x-----------------------
A|---3-/-5--5--5--5----5----5-----3-/-5--5--5--5----5----------------------- 
E|-------------------------------------------------------------------------- 
PM  .......   ....... 

E|-------------------------------6--6--6--6--8--8--8--8-------------------
B|-------------------------------6--6--6--6--6--6--6--6-------------------
G|---5-/-7--7--7--7----7----7----7--7--7--7--7--7--7--7------------------- 
D|---x---x--x--x--x----x----x---------------------------------------------
A|---3-/-5--5--5--5----5----5---------------------------------------------
E|------------------------------------------------------------------------
PM  ....... 

E|------------------------------------------------------------------------
B|------------------------------------------------------------------------ 
G|---7--7--7--7--7--7----9--9--9--9--9---10-10-10-10-10/-14--------------- 
D|---x--x--x--x--x--x----x--x--x--x--x----x--x--x--x--x--x----------------
A|---5--5--5--5--5--5----7--7--7--7--7----8--8--8--8--8-/12--------------- 
E|------------------------------------------------------------------------ 

Chorus:
E|-----------------------------------------------------------------------
B|-----------------------------------------------------------------------
G|-----------------------------------------------------------------------
D|-10--10-10-10--3--3-3-3--5--5-5-5--12-12-12-12-------------------------
A|--8---8--8--8--3--3-3-3--5--5-5-5--10-10-10-10-------------------------
E|--8---8--8--8--3--3-3-3--5--5-5-5--10-10-10-10-------------------------

E|-----------------------------------------------------------------------
B|----------------------------------------------------------------------- 
G|---14--14--14--14-/-15----12--12-/-14---10-10-/-12----9---------------- 
D|----x---x---x---x----x-----x---x----x----x--x----x----x---------------- 
A|---12--12--12--12-/-13----10--10-/-12----8--8-/-10----7----------------
E|-----------------------------------------------------------------------

E|----------------------------------------------------------------------
B|----------------------------------------------------------------------
G|----------------------------------------------------------------------
D|-10--10-10-10--3--3-3-3--5--5-5-5--12-12-12-12------------------------
A|--8---8--8--8--3--3-3-3--5--5-5-5--10-10-10-10------------------------
E|--8---8--8--8--3--3-3-3--5--5-5-5--10-10-10-10------------------------
[ Tab from: http://www.guitartabs.cc/tabs/a/afi/the_great_disappointment_tab_ver_2.html ]
E|----------------------------------------------------------------------
B|----------------------------------------------------------------------
G|---14--14--14--14-/-15----12--12-/-14---10-10-/-12----9---------------
D|----x---x---x---x----x-----x---x----x----x--x----x----x---------------
A|---12--12--12--12-/-13----10--10-/-12----8--8-/-10----7---------------
E|----------------------------------------------------------------------

e|----------------------------------------------------------------------
B|----------------------------------------------------------------------
G|--10---10-/-12--9----5--5--5-/-7--------------------------------------
D|---x----x----x--x----x--x--x---x--------------------------------------
A|---8----8-/-10--7----3--3--3-/-5--------------------------------------
E|----------------------------------------------------------------------

2nd Verse:
   D5      F5      Bb5      F5       D5      F5     Bb5      C5
E|---------------------------------|-------------------------------------
B|---------------------------------|-------------------------------------
G|---------------------------------|-------------------------------------
D|-0--0-0--3--3-3--8---8-8--3--3-3-|-0--0-0--3-3-3--8-8-8-8--10-10-10-10-
A|-0--0-0--3--3-3--8---8-8--3--3-3-|-0--0-0--3-3-3--8-8-8-8--10-10-10-10-
E|-0--0-0--3--3-3--8---8-8--3--3-3-|-0--0-0--3-3-3--8-8-8-8--10-10-10-10-
                                 3x  Last time    

e|----------------------------------------------------------------------
B|----------------------------------------------------------------------
G|--10-10-10-10-10-10----12--12--12--12--12----14--14--14--14--14-/-19--
D|---x--x--x--x--x--x-----x---x---x---x---x-----x---x---x---x---x----x--
A|---8--8--8--8--8--8----10--10--10--10--10----12--12--12--12--12-/-17-- 
E|----------------------------------------------------------------------

Play Chorus through again a bunch of times. Sometimes Jade swaps the 
Dsus2 with a low D5 (the first chord in the second verse). Listen to 
the song and you'll hear when.

Beginning of the Bridge:
E|----------------------------------------------------------------------
B|---------------------------------------------------------------------- 
G|--10----9----8----7--------------------------------------------------- 
D|---x----x----x----x--------------------------------------------------- 
A|---8----7----6----5--------------------------------------------------- 
E|---0----0----0----0---------------------------------------------------

Clean bit with some strange effect:
E|-5---5---6---6---3---3---5---5---1---1---3---3------------1---1-------
B|---6-------6-------5-------6-------3-------5-----5---5------3---------
G|---------------------------------------------------6------------------
D|----------------------------------------------------------------------
A|----------------------------------------------------------------------
E|----------------------------------------------------------------------

Then this bit comes in over the top (w/distortion)
E|-------------------------------------------------------------|--------
B|-------------------------------------------------------------|--------
G|-14-14-14-12-12-12-15-15-15-10-10-10-14-14-14-12-12-12-9-9-9-|10-10-10
D|-x--x--x--x--x--x--x--x--x--x--x--x--x--x--x--x--x--x--x-x-x-|x--x--x-
A|-12-12-12-10-10-10-13-13-13-8--8--8--12-12-12-10-10-10-7-7-7-|8--8--8-
E|-------------------------------------------------------------|--------
						   play this 1st time
E|-----------------|----------------------------------------------------
B|-----------------|----------------------------------------------------
G|-7-7--7-7--7-7-7-|----------------------------------------(10-12-9)---
D|-x-x--x-x--x-x-x-|-7h8p7-5h7p5-3--3-3-3-3-3-5-5-5h6p5-0---(x--x--x)---
A|-5-5--5-5--5-5-5-|-7h8p7-5h7p5-3--3-3-3-3-3-5-5-5h6p5-0---(8--10-7)---
E|-----------------|-7h8p7-5h7p5-3--3-3-3-3-3-5-5-5h6p5-0---------------
Play the bit in brackets second time only

Then it goes back to a similar thing to the intro with the bass and 
a D note being held at the 15th fret on the b string.

Last bit:
e|-----------------------------------------------------------------10----
B|-----------------------------------------------------------------13b15- 
G|--10-10-10-10-10-10----12--12--12--12--12----14--14--14--14--14-------- 
D|---x--x--x--x--x--x-----x---x---x---x---x-----x---x---x---x---x-------- 
A|---8--8--8--8--8--8----10--10--10--10--10----12--12--12--12--12--------
E|-----------------------------------------------------------------------

Then repeat the chorus another bunch of times and that should be it. 
This song is certainly no disappointment.
Tabbed 19/20th October 2003 by noodles_wazaman (wazman87@hotmail.com)
Thanks goes to the author of the other Great Disappointment tab, I used his
stuff for the verses.
Comments