Afi - The Great Disappointment Chords & Tabs

 

The Great Disappointment Chords & Tabs

Afi Chords & Tabs

Version: 4 Type: Bass Tab 0 ratings
1 star 2 stars 3 stars 4 stars 5 stars
comments

The Great Disappointment Bass Tab

This is the best song in Sing the Sorrow in my opinion and its worth while to learn to 
This is the song I am gonna to tab. Hope I got it right.

Introduction: It starts really quiet at 00:32

G|------------------------------------------------|
D|------------------------------------------------|
A|-44-44--44-4-44-4--44-44--44-4-44-4--44-44--44--|
E|------------------------------------------------|

[ Tab from: http://www.guitartabs.cc/tabs/a/afi/the_great_disappointment_btab_ver_4.html ]
G|---------------------------------------------|
D|------4h6-2--------------4h6-2---------------|
A|-4-44-------2-2-0-0--0--------2-2-0-0--0-----| 6x
E|---------------------------------------------|

Verse:

G|---------------------------------------------|
D|------4h6-2--------------4h6-2---------------|
A|-4-44-------2-2-0-0--0--------2-2-0-0--0-----| 4x
E|---------------------------------------------|

G|--6-6-6-6-|
D|----------|
A|-4-4-4-4--|
E|----------|
Comments