Afi - The Great Disappointment Chords & Tabs

 

The Great Disappointment Chords & Tabs

Afi Chords & Tabs

Version: 3 Type: Bass Tab 0 ratings
1 star 2 stars 3 stars 4 stars 5 stars
comments

The Great Disappointment Bass Tab

THE GREAT DISAPPOINTMENT
INSTRUMENT=BASS
TABBED BY=D.Boyd


INTRO

G----------------------------------------------------
D----------------------------------------------------
A---44--4-4-4--44-4-4-4-4--44--4-4-4-4-44--4-4-4-4---
E----------------------------------------------------


-----------------------------------------------------
--------------4h6-2--------------------4h6-2-----------
---4--4-4-----------2--2-0--0-0-----------2-2--------(x6)I think

[ Tab from: http://www.guitartabs.cc/tabs/a/afi/the_great_disappointment_btab_ver_3.html ]
-----------------------------------------------------
-----------------------------------------------------
--------------4h6-2--------------------4h6-2-----------
---4--4-4-----------2--2-0--0-0--------------2-2--------x4

Then later in the song, nearly the same as the rest but with a twist, *Whoa*

-----------------------------------------------------------------------2h4-2-
--------------4h6-2--------------------4h6-2-------------4h6-2---------------
----4--44----------2--2-0--0-0--------------2-2---4-4-4-------2-2-0-0-0------
-----------------------------------------------------------------------------
(CONT)
-1-1-------------------------------------------
------4-2--------------------------------------
-----------------------------------------------
-----------------------------------------------

This is my first tab, please, excuse me if i am wrong about parts
Comments