Afi - The Great Disappointment Chords & Tabs

 

The Great Disappointment Chords & Tabs

Afi Chords & Tabs

Version: 1 Type: Bass Tab 0 ratings
1 star 2 stars 3 stars 4 stars 5 stars
comments

The Great Disappointment Bass Tab

   
Band: A.F.I. (A Fire Inside)
Song: "The Great Disappointment"
Instrument: Bass
Tabbed: 04/3/03
By: Kiwi (DKMLoser913@hotmail.com)
Tuning: Normal (EADG)

This song is by far my favorite off of Sing The Sorrow. The bass riff I absolutely love, so I figured it out for you! I'm 101% sure I got the main introduction riff correct, and I'm still figuring out the chorus and everything else. Just in case you don't know, here's what the different symbols I use mean:

2h4: hammer on from fret 2 to 4 quickly, or from whatever fret to whatever other riff.
(0:36) : The time you come in, or that certain section comes in. If you play the song in Winamp or Windows Media Player, it will show you the times.

[ Tab from: http://www.guitartabs.cc/tabs/a/afi/the_great_disappointment_btab.html ]
Introduction (bass only with guitar scraps in backround):
(0:36)
----------------------------------------------------------
----------------------------------------------------------
---44--4-4-4--44-4-4-4-4--44--4-4-4-4-44--4-4-4-4-
----------------------------------------------------------
(0:52)
--------------------------------------------
-----------4h6-2-----------------4h6-2----
---4--4-4---------2--2-0--0-0---------2-2
--------------------------------------------- x6 (i think)

(1:18 Verse)
--------------------------------------------
-----------4h6-2-----------------4h6-2----
---4--4-4---------2--2-0--0-0---------2-2
---------------------------------------------x4

Then, a little later in the song, it's almost the same riff, but a little twist is added *gasp!*:
(4:25)
-------------------------------------------------------------------------------2h4-2-1-1-
-----------4h6-2-----------------4h6-2---------------4h6-2-----------------------------
---4--4-4---------2--2-0--0-0---------2-2---4--4-4---------2--2-0--0-0-------------
-----------------------------------------------------------------------------------------

-----------------------------------------------------------------------------------------
---4-2~~----------------------------------------------------------------------------------
-----------------------------------------------------------------------------------------
-----------------------------------------------------------------------------------------
Comments