Afi - The Days Of The Phoenix Chords & Tabs

 

The Days Of The Phoenix Chords & Tabs

Afi Chords & Tabs

Version: 1 Type: Bass Tab 0 ratings
1 star 2 stars 3 stars 4 stars 5 stars
comments

The Days Of The Phoenix Bass Tab

   
Song: Days of the Phoenix
Artist: AFI
Album: The Art of Drowning
Tabbed By: Alex Angus (wings9899@hotmail.com)
     Member of the Bass Tab Archive Tabbing Army

W/ Pick
>= strum
~ = let ring

No Bass In Beginning Of Intro
(0:08)
     2 times
G|------------------|
D|------------------|
A|-2>---------------|
E|----2>-3>-5>------|

Verse 1 (I remember when...) solo part
              2 times
G|------------------------------------------|
D|------------------------------------------|
A|-2-2-------2-2/5-5-----5-----7------------|
E|-----2/5-5---------3-3---4-4---5-5--5-5---|

when guitar comes in
        2 times          after 2nd time do this
G|----------------------|----------------------|
D|----------------------*----------------------|
A|-2>----2>/5>----------*----------------------|
E|----5>-------3>-4>-5>-|--2>-3-3-3-3-3-3-3-5~-|

Chorus
       4 times       after 4th time, do this
G|-----------------|--------|
D|---------5-5-5-5-*--/7>---|
A|-2-2/5-5---------*--------|
E|-----------------|--------|
[ Tab from: http://www.guitartabs.cc/tabs/a/afi/the_days_of_the_phoenix_btab.html ]
Verse 2 Intro
    2 times
G|---------------|
D|---------------|
A|-2>-5>---------|
E|-------3>-5>---|

Verse 2 is the same as verse one where
the guitar comes in

After Verse 2 go to the Chorus

After Chorus (Talking Part)
     4 times
G|-----------------|--------------------|
D|-----------------*--------------------|
A|-2~~-------------*--------------------|
E|-----5~~-3~~-5~~-|-3~-3-3-3-3-3-3-5~~-|

After the Talking Part go to the Chorus
        once more

After the Chorus brings you to the outro.
   It is the same as the Verse 2 Intro

End On
  A|-2-

This is a fairly easy song. It took me about 20 min to figure
    out entirely. I'm not sure if I got all the fills but I'm
    pretty sure I did. My tab is a bit confusing when you get
    to the second verse. But listen to the cd for timing then
    you will get it for sure. This is a great song by a great
    band off a great album. If there are any questions,
    comments or suggestions, I am willing to take them. My
    e-mail is wings9899@hotmail.com       AFI RULES!!!
Comments